Soulfly

Babylon

Soulfly

tabs

by  MARCELO_DRUMS

save to print version add songbook text version e-mail correct tuner
chordsukulelecavacokeyboardtabbassdrumsharmonicaflute Guitar Pro
close

there isn't a video lesson for this song

chords

Babylon

	  		Intro 
|-------------------------------------------------------------------| 
|-------------------------------------------------------------------| 
|-------------------------------------------------------------------| 
|-------------------------------------------------------------------| 
|-------------------------------------------------------------------| 
|---000000000000----00000000000----000000000000----000000000000-----| 
    ............    ...........    ............    ............ 

 Verse 
|-------------------------------------------------------------------| 
|-------------------------------------------------------------------| 
|-------------------------------------------------------------------| 
|-------------------------------------------------------------------| 
|-------------------------------------------------------------------| 
|---0-6/4---0-6/4---0-3/6---0-3/6---0-6/4---0-6/4---0-6/4---0-6/4---| 

 Chours 
|--------------------------------| 
|--------------------------------| 
|--------------------------------| 
|--------------------------------| 
|--------------------------------| 
|---5-0---5-0---5-0---5-0---3~---| 
    On and on and on and on... 

 Heavy Riff!!!! 
|-----------------------------------| 
|-----------------------------------| 
|-----------------------------------| 
|-----------------------------------| 
|----------------------------9--4---| 
|---0-0-0-0-0-0-0-0-0-0-0-0--9--4---| 



		  

See also:

tabs Rancid - Time Bomb tabs Avenged Sevenfold - Seize The Day tabs Pennywise - Bro Hymn tabs Sting and david Craig - rise and fall tabs Trivium - Pull Harder On The Strings Of Your Martyr tabs New Found Glory - My heart will go on
e-chords

Other versions:

tabs Soulfly - Babylon tabs Boyce Avenue - Babylon tabs Don McLean - Babylon tabs Nina Nesbitt - Babylon tabs David Gray - Babylon (ver.4) tabs Cradle of Filth - Babylon Ad
auto scroll beats size up size down change color hide chords drawings
tab show chords e-chords YouTube Clip e-chords hide all tabs e-chords go to top tab

share