Soulfly

Tribe

Soulfly

tabs

by  MAX(BA)

save to print version add songbook text version e-mail correct tuner
chordsukulelecavacokeyboardtabbassdrumsharmonicaflute Guitar Pro
close

there isn't a video lesson for this song

chords

Tribe

	  		Tune down to B (B E A D F# B) 
  
 LEGEND: 
 	/ or \ - slide up or down 
 	~~     - vibrato 
 	p      - pull off 
   	h	 - hammer on 
  	b	 - bend 
 	N	 - natural harmonics 
 	A	 - artifical harmonics 
 	*	 - palm mute 
 	trem.  - tremelo pick 
         ^	 - arpeggiate 
  
 ---------------------------------------------------------------------------- 
  
 Berimbau Intro (berimbau arr. for guitar) 
  
 B|------------------------------| 
 F|------------------------------| 
 D|------------------------------| 
 A|-0-0-0-0-0-0-0-0-0-0-0-0-0-0--| 
 E|------------------------------| 
 B|------------------------------| 
  
 Intro/Verse 
  
 B|-----------------------------| 
 F|-----------------------------| 
 D|-----------------------------| 
 A|-----------------------------| 
 E|-6-x-x-x-x-6--4--7-6/7-------| 
 B|-4-x-x-x-x-4--2--5-4/5-------| 
  
 Pre-Verse/Pre-Chorus (???? - it's just THERE!) 
  
 B|-----------------------------| 
 F|-----------------------------| 
 D|-----------------------------| 
 A|-----------------------------| 
 E|-2--2-5--2-2--2-2-5----------| 
 B|-0--0-3--0-0--0-0-3----------| 
    *  *    * *  * *  
  
 Chorus 
  
 B|-----------------------------------------| 
 F|-----------------------------------------| 
 D|-----------------------------------------| 
 A|-----------------------------------------| 
 E|-2-2-3-2-3-2-3-2--2-2-3-2-3-2-3--8-------| 
 B|-0-0-1-0-1-0-1-0--0-0-1-0-1-0-1--6-------| 
  
 Interlude 
  
 B|------------------------------| 
 F|------------------------------| 
 D|------------------------------| 
 A|------------------------------| 
 E|------------------------------| 
 B|-6-0-6-0-6-0-6-0-6~~~~--------| 
  
 B|-----------------------------------| 
 F|-----------------------------------| 
 D|-----------------------------------| 
 A|-----------------------------------| 
 E|-2-2--2-2--2-2--2-2----------------| 
 B|-0-0--0-0--0-0--0-0--6b------------| 
  
 B|-----------------------------------| 
 F|-----------------------------------| 
 D|-----------------------------------| 
 A|-----------------------9b----------| 
 E|-2-2--2-2--2-2--2-2----------------| 
 B|-0-0--0-0--0-0--0-0----------------| 
  
 Break (I can't be bothered tabbing this, just improvise) 
  
 Outro 
  
 B|------------------------------| 
 F|------------------------------| 
 D|------------------------------| 
 A|------------------------------| 
 E|-3-2--2-5--3--5-3--5-2--------| 
 B|-0-0--0-3--1--3-1--3-0--------| 
 

		  

See also:

tabs Tenacious D - Her Gently tabs Trivium - Pull Harder On The Strings Of Your Martyr tabs Jesus Christ Superstar - Overture tabs Tenacious D - Its A Long Way To The Top tabs Tenacious D - One Note Song tabs Tenacious D - Wonderboy (ver. 1)
e-chords

Other versions:

tabs Soulfly - Tribe
auto scroll beats size up size down change color hide chords drawings
tab show chords e-chords YouTube Clip e-chords hide all tabs e-chords go to top tab

share