Soulfly

Son Song

Soulfly

tabs

by  MAX(BA)

save to print version add songbook text version e-mail correct tuner
chordsukulelecavacokeyboardtabbassdrumsharmonicaflute Guitar Pro
close

there isn't a video lesson for this song

chords

Son Song

	  		Intro is maked w/ some distortion and then with 7/8 
 distortion. 
 Use a OVERDRIVE PLUS. It's recomended!!! 
  
 Sean says --- One too tee foll 
 Begin: 
 e|---------------------------------------| 
 B|---------------------------------------| 
 G|-----7-6-5---5-6-7-------7-6-5---5-6---| 
 D|-7-7-7-6-5-0-5-6-7-0-7-7-7-6-5-0-5-6-0-| 
 A|-7-7-5-4-3-0-3-4-5-0-7-7-5-4-3-0-3-4-0-| 
 E|-5-5-----------------5-5---------------| 
                                  | 
 Sometimes I don't            Here, put 7/8 distortion. 
  
 Sometimes I feel 
 Empty Inside 
                                   A second guitar play 
 at the end of: 
 But every moment is precious------A|-0-5-4-3-0-| 
 And everything will turn to dust--E|---0-------| 
  
 Now, Sean play on keyboards, but before, he plays on 
 Synth: 
 Synth on guitar: 
 e|-1/12-13/4---1/21----| 
 B|-----------1------21-| 
 G|---------------------| 
 D|---------------------| 
 A|---------------------| 
 E|---------------------| 
  
 There is a guitar behind the keyboards: 
 e|-------------------------------| 
 B|-------------------------------| 
 G|-------------------------------| 
 D|-------------------------------| It's is played after Synth too!!! 
 A|-------------------9-----9-----| 
 E|-0-0-0-0-0-0-0-0-0-7-0-0-7-0-0-| 
  
 Keyboards transcribed for guitar: 
 e|-0~~-7---7h0-| 
 B|-------------| 
 G|-------------| 
 D|-------------| 
 A|-------------| 
 E|-------------| 
  
 End: It's happen after the last "And everything will turn to dust!" 
 e|------------------------| 
 B|------------------------| 
 G|------------------------| 
 D|------------------------| This parte hasn't distortion!!! 
 A|-2--2-3--3-5--5-6---6/3-| They make w/ PALM MUTEDS 
 E|-0~-0-1~-1-3~-3-4~~-4/1-| 
 

		  

See also:

tabs X-files - Theme Song tabs Eddie Cochran - Summer time blues tabs Tenacious D - Wonderboy (ver. 1) tabs Poison - Unskinny Bop tabs Tenacious D - Her Gently tabs The Donnas - Take It Off
e-chords

Other versions:

tabs Soulfly - Son Song
auto scroll beats size up size down change color hide chords drawings
tab show chords e-chords YouTube Clip e-chords hide all tabs e-chords go to top tab

share