Soulfly

Back to the Primitive

Soulfly

tabs Easy easy

by  MAX(BA)

save to print version add songbook text version e-mail correct tuner
chordsukulelecavacokeyboardtabbassdrumsharmonicaflute Guitar Pro
close

there isn't a video lesson for this song

chords

Back to the Primitive

	  		Tuning: dropped B 
  
 _: let ring 
  
 1st guitar 
 c#|-------------------------------------------------| 
 g#|-------------------------------------------------| 
  e|-11-11-11-11-11-11-11-11-11-11-11-11-11-11-11-11-| 
  b|-12-12-12-12-12-12-12-12-12-12-12-12-12-12-12-12-| 
 f#|-------------------------------------------------| 
  b|-------------------------------------------------| 
      == == ==    == == ==    == == ==    == == == 
     |  |  |  |  |  |  |  |  |  |  |  |  |  |  |  | 
     /  /  /  /  /  /  /  /  /  /  /  /  /  /  /  / 
  
 c#|-------------------------------------------------| 
 g#|-------------------------------------------------| 
  e|-11-11-11-11-11-11-11-11-11-11-11-11-13-13-13-13-| 
  b|-12-12-12-12-12-12-12-12-12-12-12-12-12-12-12-12-| 
 f#|-------------------------------------------------| 
  b|-------------------------------------------------| 
      == == ==    == == ==    == == ==    == == == 
     |  |  |  |  |  |  |  |  |  |  |  |  |  |  |  | 
     /  /  /  /  /  /  /  /  /  /  /  /  /  /  /  / 
  
 2nd guitar 
 c#|---|---| 
 g#|-3-|---| 
  e|-2-|---| 
  b|-0-|---| 
 f#|-0-|---| 
  b|-0-|---| 
    _ 
  
                x3 
 c#|-----------|------------------------------| 
 g#|-----------|------------------------------| 
  e|-----------|------------------------------| 
  b|-1-3-1-0---|-1-3-1-0----11-11-11-11-11-11-| 
 f#|-1-3-1-0---|-1-3-1-0----11-11-11-11-11-11-| 
  b|-1-3-1-0---|-1-3-1-0----11-11-11-11-11-11-| 
      = = =       = = =      == == ==    == 
     | | | |_|   | | | | |  |  |  |  |  |  | 
     / / / / 0.  / / / / /. /  /  /  /  /  / 
  
 c#|----------------------------------------| 
 g#|----------------------------------------| 
  e|----------------------------------------| 
  b|------------------------------------2-1-| 
 f#|-1---0--0---1---0---0---1---0---0---2-1-| 
  b|-1---0--0---1---0---0---1---0---0---2-1-| 
      =      =   =       =   =       = 
     |   |  |   |   |   |   |   |   |   | | 
     /   /  /   /   /   /   /   /   /   / / 
		  

Full key step upFull key step up
Half key step upHalf key step up
Half key step downHalf key step down
Full key step downFull key step down
hide glossary

See also:

tabs Tenacious D - Her Gently tabs Trivium - Pull Harder On The Strings Of Your Martyr tabs Jesus Christ Superstar - Overture tabs Tenacious D - Its A Long Way To The Top tabs Tenacious D - One Note Song tabs Tenacious D - Wonderboy (ver. 1)
e-chords

Other versions:

tabs Soulfly - Back to the Primitive tabs Soulfly - Back to the Primitive (ver. 2)
auto scroll beats size up size down change color hide chords drawings
tab show chords e-chords YouTube Clip e-chords hide all tabs e-chords go to top tab

share