Soulfly

Bumbklaat

Soulfly

tabs

by  MAX(BA)

save to print version add songbook text version e-mail correct tuner
chordsukulelecavacokeyboardtabbassdrumsharmonicaflute Guitar Pro
close

there isn't a video lesson for this song

chords

Bumbklaat

	  		 Tune down to B (B E A D F# B) 
  
 LEGEND: 
 	/ or \ - slide up or down 
 	~~     - vibrato 
 	p      - pull off 
   	h	 - hammer on 
  	b	 - bend 
 	N	 - natural harmonics 
 	A	 - artifical harmonics 
 	*	 - palm mute 
 	trem.  - tremelo pick 
         ^	 - arpeggiate 
  
 ---------------------------------------------------------------------------- 
  
 Intro  
      
    # # 
 B|-5-5--------| 
 F|------------| 
 D|------------| 
 A|------------| 
 E|------------| 
 B|------7b----| 
  
 Verse 
  
 B|--------------------------------------------x-x----------| 
 F|--------------------------------------------x-x----------| 
 D|--------------------------------------------x-x-----x-x--| 
 A|----------------------------------------------------x-x--| 
 E|-2-2-2-5-8-4--2-2-2-5-8-4--2-2-2-5-8-4--2-2-----2-2------| 
 B|-0-0-0-3-6-2--0-0-0-3-6-2--0-0-0-3-6-2--0-0-----0-0------| 
  
 Fill One (not positive of this riff) 
  
 B|------------------------------------| 
 F|------------------------------------| 
 D|------------------------------------| 
 A|---A---A---A---A---A---A---A--------| 
 E|---6---6---6---6---6---6---6--------| 
 B|-4---4---4---4---4---4---4----5-3---| 
  
 Chorus 
  
 B|--------------------------| 
 F|--------------------------| 
 D|--------------------------| 
 A|--------------------------| 
 E|-6-6-x-6-6-x-6-6--6-7-5---| 
 B|-4-4-x-4-4-x-4-4--4-5-3---| 
  
 Bridge 
  
 B|------------| 
 F|------------| 
 D|------------| 
 A|------------| 
 E|-2-2--2-2---| 
 B|-0-0--0-0---| 
  
 Outro 
  
 B|-----------------| 
 F|-----------------| 
 D|-----------------| 
 A|-----------------| 
 E|-6-x-x-6-x-x-6---| 
 B|-4-x-x-4-x-x-4---| 
		  

See also:

tabs Rancid - Time Bomb tabs Avenged Sevenfold - Seize The Day tabs Pennywise - Bro Hymn tabs Sting and david Craig - rise and fall tabs Trivium - Pull Harder On The Strings Of Your Martyr tabs New Found Glory - My heart will go on
e-chords

Other versions:

tabs Soulfly - Bumbklaat
auto scroll beats size up size down change color hide chords drawings
tab show chords e-chords YouTube Clip e-chords hide all tabs e-chords go to top tab

share