Soulfly

Porrada

Soulfly

tabs Expert expert

by  MARCELO_DRUMS

save to print version add songbook text version e-mail correct tuner
chordsukulelecavacokeyboardtabbassdrumsharmonicaflute Guitar Pro
close

there isn't a video lesson for this song

chords

Porrada

	  		transcrição retirada do site oficial do soufly. a legenda tá em inglês, pq, como disse, foi retirada do site oficial.  

Marcelo Drums - [email protected] 

PORRADA 

Gtr I  (E A D G B E) 
Gtr II (E A D G B E) 

Q=116 
Gtr I 

E S S E S S E S S E S S E S S E S S E S S E S S 
||--------------------------|---------------------------|| 
||o-------------------------|--------------------------o|| 
||--------------------------|---------------------------|| 
||--7-7-7-7-7-7-----------7-|-7-7-7-7-7-7-----------7---|| 
||o-5-5-5-5-5-5-8-8-8-4-4-5-|-5-5-5-5-5-5-8-8-8-4-4-5--o|| 
||--------------6-6-6-2-2---|-------------6-6-6-2-2-----|| 

Gtr I 
E S S E S S E S S E S S E S S E S S E S S E S S 
|-------------------------|--------------------------| 
|-------------------------|--------------------------| 
|-------------------------|--------------------------| 
|-7-7-7-7-7-7-----------7-|-7-7-7-7-7-7--------------| 
|-5-5-5-5-5-5-8-8-8-4-4-5-|-5-5-5-5-5-5-8-8-8-4-4-4--| 
|-------------6-6-6-2-2---|-------------6-6-6-2-2-2--| 

Gtr I 
E. S E. S E. S E. S E. S E. S E. S E. S 
|---------------------|----------------------| 
|---------------------|----------------------| 
|---------------------|----------------------| 
|---------------------|----------------------| 
|-6--4-6--4-6--4-9--4-|-6--4-6--4-6--4-9--4--| 
|-4--2-4--2-4--2-7--2-|-4--2-4--2-4--2-7--2--| 

Gtr I 
E. S E. S E. S E. S E. S E. S E. S E. S 
|---------------------|------------------------| 
|---------------------|------------------------| 
|---------------------|------------------------| 
|---------------------|------------------------| 
|-6--4-6--4-6--4-9--4-|-6--4-6--4-6--4-9--4----| 
|-4--2-4--2-4--2-7--2-|-4--2-4--2-4--2-7--2----| 
| 
| Gtr II 
| H. E S S 
|---------------------|------------------------| 
|---------------------|------------------------| 
|---------------------|-------------------9h10-| 
|---------------------|------------------------| 
|---------------------|------------------------| 
|---------------------|------------------------| 

Gtr I 
W +W 
|-----------------------|-----------------------------------------------| 
|-----------------------|-----------------------------------------------| 
|-----------------------|-----------------------------------------------| 
|-----------------------|-----------------------------------------------| 
|-2---------------------|-(2)-------------------------------------------| 
|-0---------------------|-(0)-------------------------------------------| 
| 
| ~~~~~~~~~ 
| H +E. S S S S S S S S S S S S S S S S S S S S S 
|-----------------------|-----------------------------------------------| 
|-----------------------|-----------------------------------------------| 
|-9----(9)-10-9---------|-----------------------------------------------| 
|---------------12-10-9-|-10--9----9----------9-10----9-10-10h12p10p9---| 
|-----------------------|-------12---12-11-12------12-------------------| 
|-----------------------|-----------------------------------------------| 

Gtr I 
W +W 
|-------------------------------------------|------------------------| 
|-------------------------------------------|------------------------| 
|-------------------------------------------|------------------------| 
|-------------------------------------------|------------------------| 
|--2----------------------------------------|-(2)--------------------| 
|--0----------------------------------------|-(0)--------------------| 
| 
| PM------------| ~ 
| S S S S S S S S S S S S S S S S S S S S S S S S H 
|-------------------------------------------|------------------------| 
|-------------------------------------------|------------------------| 
|-------------------------------------------|------------------------| 
|-10p9----9---------------------------------|------------------------| 
|------12---12-11-12-11-12-11-7-11-8-7------|-----------7h8p7p5h7----| 
|--------------------------------------10-7-|-10--7-5-4--------------| 

Gtr I 
W 
|---------------------------------| 
|---------------------------------| 
|---------------------------------| 
|---------------------------------| 
|-2-------------------------------| 
|-0-------------------------------| 
| 
| ~ ~~ 
| S S S S E S S S S E S S S S 
|---------------------------------| 
|----------------------------9----| 
|------------------9-10-9-10---10-| 
|-----6-7-9-7-9-10----------------| 
|-7-8-----------------------------| 
|---------------------------------| 

+W 
|-----------------------------------------------| 
|-----------------------------------------------| 
|-----------------------------------------------| 
|-----------------------------------------------| 
|-(2)-------------------------------------------| 
|-(0)-------------------------------------------| 
| 
| ~~~ ~~ 
| S +S S S S S E S S S S E S S 
|---------------------------------------12------| 
|-10b11r(10)-9-10-10-12-/13-12h13p12h13----9h10-| 
|-----------------------------------------------| 
|-----------------------------------------------| 
|-----------------------------------------------| 
|-----------------------------------------------| 

Gtr I 
W 
|------------------------| 
|------------------------| 
|------------------------| 
|------------------------| 
|-2----------------------| 
|-0----------------------| 
| 
| ~ ~~ ~~ 
| Q S S Q S S Q 
|--------------12h13-12--| 
|-9--12h13-12------------| 
|------------------------| 
|------------------------| 
|------------------------| 
|------------------------| 

E E E E E E E E 
|-------------------------------------------------------------------------| 
|-------------------------------------------------------------------------| 
|-------------------------------------------------------------------------| 
|-------------------------------------------------------------------------| 
|--6--------6--------6--------6--------6--------6--------6--------6-------| 
|--4--------4--------4--------4--------4--------4--------4--------4-------| 
| 
| T T T T 
| |--3--| |--3--| |--3--| |--3--| |--3--| |--3--| |--3--| |--3--| 
| S S S S S S S S S S S S S S S S S S S S S S S S 
|-17-16p13p12h13h16-17-16p13p12h13h16-17-16p13p12h13h16-17-16p13p12h13h16-| 
|-------------------------------------------------------------------------| 
|-------------------------------------------------------------------------| 
|-------------------------------------------------------------------------| 
|-------------------------------------------------------------------------| 
|-------------------------------------------------------------------------| 

E E S E S E S E S E E E S E S E S E S E 
|-------------------------------------|---------------------| 
|-------------------------------------|---------------------| 
|-------------------------------------|---------------------| 
|-------------------------------------|---------------------| 
|--3-----2-----------2------2---2---3-|-3-2---2---2---2---3-| 
|--1p====0-----------0------0---0---1-|-1p0---0---0---0---1-| 
| 
| ~~~~~~~~~~~~~~~~~~~~~~~ 
| Q Q Q Q 
|-22b24-22b24-22b24-22b24-------------|---------------------| 
|-------------------------------------|---------------------| 
|-------------------------------------|---------------------| 
|-------------------------------------|---------------------| 
|-------------------------------------|---------------------| 
|-------------------------------------|---------------------| 

TPTPTPTP 
E E S E S E S E S E E E S E S E E E E 
|---------------------|-------------------| 
|---------------------|-------------------| 
|---------------------|-------------------| 
|---------------------|-------------------| 
|-3-2---2---2---2---3-|-3-2---2---6-6-6-6-| 
|-1p0---0---0---0---1-|-1p0---0---4-4-4-4-| 

E E S E S E S E S E E E S E S E S E S E 
|---------------------|---------------------| 
|---------------------|---------------------| 
|---------------------|---------------------| 
|---------------------|---------------------| 
|-3-2---2---2---2---3-|-3-2---2---2---2---3-| 
|-1p0---0---0---0---1-|-1p0---0---0---0---1-| 

TPTPTPTP 
E E S E S E S E S E E E S E S E E E E 
|---------------------|--------------------| 
|---------------------|--------------------| 
|---------------------|--------------------| 
|---------------------|--------------------| 
|-3-2---2---2---2---3-|-3-2---2---6-6-6-6--| 
|-1p0---0---0---0---1-|-1p0---0---4-4-4-4--| 



Duration Legend 
--------------- 
W - whole;  
H - half;  
Q - quarter;  
E - 8th;  
S - 16th;  
T - 32nd;  
X - 64th;  
a - acciaccatura  
+ - note tied to previous;  
. - note dotted;  
.. - note double dotted 

Uncapitalized letters represent notes that are staccato (1/2 duration) 

Irregular groupings are notated above the duration line 

Duration letters will always appear directly above the note/fret number it represents the duration for.  

Duration letters with no fret number below them represent rests.  

Multi- bar rests are notated in the form Wxn, where n is the number of bars to rest for. Low melody durations appear below the staff 


Tablature Legend 
---------------- 
h - hammer-on 
p - pull-off 
b - bend 
pb - pre-bend 
r - bend release (if no number after the r, then release immediately) 
/\ - slide into or out of (from/to "nowhere") 
s - legato slide 
S - shift slide 
N - natural harmonic 
{n} - artificial harmonic 
n(n) - tapped harmonic 
~ - vibrato 
tr - trill 
T - tap 
TP - trem. picking 
PM - palm muting 
\n/ - tremolo bar dip;  
n = amount to dip 
\n - tremolo bar down 
n/ - tremolo bar up 
/n\ - tremolo bar inverted dip 
= - hold bend; also acts as connecting device for hammers/pulls 
<> - volume swell (louder/softer) 
x - on rhythm slash represents muted slash 
o - on rhythm slash represents single note slash 

Misc Legend 
----------- 
| - bar 
|| - double bar 
||o - repeat start 
o|| - repeat end 
*| - double bar (ending) 
: - bar (freetime) 
$ - Segno 
& - Coda 
Tempo markers - = BPM(8/16=s8/s16), where s8 = swing 8ths, s16 = swing 16ths 


		  

Full key step upFull key step up
Half key step upHalf key step up
Half key step downHalf key step down
Full key step downFull key step down
hide glossary

See also:

tabs Rancid - Time Bomb tabs Avenged Sevenfold - Seize The Day tabs Pennywise - Bro Hymn tabs Sting and david Craig - rise and fall tabs Trivium - Pull Harder On The Strings Of Your Martyr tabs New Found Glory - My heart will go on
e-chords

Other versions:

tabs Soulfly - Porrada
auto scroll beats size up size down change color hide chords drawings
tab show chords e-chords YouTube Clip e-chords hide all tabs e-chords go to top tab

share