Soulfly

Prejudice

Soulfly

tabs

by  MAX(BA)

save to print version add songbook text version e-mail correct tuner
chordsukulelecavacokeyboardtabbassdrumsharmonicaflute Guitar Pro
close

there isn't a video lesson for this song

chords

Prejudice

	  		Tune down to B (B E A D F# B) 
  
 LEGEND: 
 	/ or \ - slide up or down 
 	~~     - vibrato 
 	p      - pull off 
   	h	 - hammer on 
  	b	 - bend 
 	N	 - natural harmonics 
 	A	 - artifical harmonics 
 	*	 - palm mute 
 	trem.  - tremelo pick 
         ^	 - arpeggiate 
  
 ---------------------------------------------------------------------------- 
  
 Main Riff 
  
 B|-----------------------------| 
 F|-----------------------------| 
 D|--------------------------0--| 
 A|-----------------------------| 
 E|-----------------------------| 
 B|-2h3-0--2h3-0--2h3-0-2h3-----| 
  
 Riff One ("Prejudice!") 
  
 B|-------------------| 
 F|-------------------| 
 D|-------------------| 
 A|-------------------| 
 E|-2-2--6--2-5-6-----| 
 B|-0-0--4--0-3-4-----| 
  
 Bridge 
  
 B|---------| 
 F|---------| 
 D|---------| 
 A|---------| 
 E|---4-----| 
 B|-3---2---| 
  
 B|---------| 
 F|---------| 
 D|---------| 
 A|---------| 
 E|-4-4-3---| 
 B|-2-2-1---| 
 

		  

See also:

tabs Rancid - Time Bomb tabs Avenged Sevenfold - Seize The Day tabs Pennywise - Bro Hymn tabs Sting and david Craig - rise and fall tabs Trivium - Pull Harder On The Strings Of Your Martyr tabs New Found Glory - My heart will go on
e-chords

Other versions:

tabs Soulfly - Prejudice
auto scroll beats size up size down change color hide chords drawings
tab show chords e-chords YouTube Clip e-chords hide all tabs e-chords go to top tab

share