Soulfly

Eye For An Eye

Soulfly

tabs

by  MAX(BA)

save to print version add songbook text version e-mail correct tuner
chordsukulelecavacokeyboardtabbassdrumsharmonicaflute Guitar Pro
close

there isn't a video lesson for this song

chords

Eye For An Eye

	  		 Drop-D tuning down 3 1/2 steps (G D G C E A) 
  
 LEGEND: 
 	/ or \ - slide up or down 
 	~~     - vibrato 
 	p      - pull off 
   	h	 - hammer on 
  	b	 - bend 
 	N	 - natural harmonics 
 	A	 - artifical harmonics 
 	*	 - palm mute 
 	trem.  - tremelo pick 
         ^	 - arpeggiate 
  
 ---------------------------------------------------------------------------- 
  
 Intro/Verse 
  
 A|-----------------------------------------------------------------| 
 E|-----------------------------------------------------------------| 
 C|-----------------------------------------------------------------| 
 G|-----------------------------------------------------------------| 
 D|-----------------------------------------------------------------| 
 G|-0-6-6-6-6-6-0--0-6-6-6-6-6-0--0-6-6-6-6-6-0--0-0-0-0-0-0-0-0----| 
  
 Chorus 
  
 A|-------------------------------| 
 E|-------------------------------| 
 C|-------------------------------| 
 G|-------------------------------| 
 D|-4-6-6--7-6-6--7-6-6--7-6-6----| 
 G|-4-6-6--7-6-6--7-6-6--7-6-6----| 
  
 Post-Chorus 
  
 A|-----------------------------------| 
 E|-----------------------------------| 
 C|-----------------------------------| 
 G|-----------------------------------| 
 D|-----------------------------------| 
 G|-4-6-6-6-7-6-6-6-7-6-6-6-7-6-6-6---| 
  
 Solo (w/ whammy pedal) 
  
 A|-14trem.--------------16--14h16---16trem.---| 
 E|--------------------------------------------| 
 C|--------------------------------------------| 
 G|--------------------------------------------| 
 D|--------------------------------------------| 
 G|--------------------------------------------| 
  
 Interlude (w/ flanger) 
  
 A|----------------------------------------------------------------------| 
 E|-7/9-9--9/10-10--10/12-12-12--12/10-10-10--10/9-9-9--9/7-7-7-6--6-6/--| 
 C|----------------------------------------------------------------------| 
 G|----------------------------------------------------------------------| 
 D|----------------------------------------------------------------------| 
 G|----------------------------------------------------------------------| 
  
 Outro 
  
 A|-------------------------------------------------------------------------| 
 E|-7/9-9--9/10-10--10/12-12-12--12/10-10-10--10/9-9-9--9/7-7-7--7/6--6-6/--| 
 C|-------------------------------------------------------------------------| 
 G|-------------------------------------------------------------------------| 
 D|-------------------------------------------------------------------------| 
 G|-4/6-6--6/7---7---7/9---9--9---9/7---7--7---7/6-6-6--6/4-4-4--4/3--3-3/--| 
  
 Final Part 
  
 A|-------------------------------------| 
 E|-------------------------------------| 
 C|-------------------------------------| 
 G|-------------------------------------| 
 D|-4-6-6--4-6-6--4-6-6--4-6-6\4\3\2\1--| 
 G|-4-6-6--4-6-6--4-6-6--4-6-6\4\3\2\1--| 

		  

See also:

tabs X-files - Theme Song tabs Eddie Cochran - Summer time blues tabs Tenacious D - Wonderboy (ver. 1) tabs Poison - Unskinny Bop tabs Tenacious D - Her Gently tabs The Donnas - Take It Off
e-chords

Other versions:

tabs Soulfly - Eye For An Eye
auto scroll beats size up size down change color hide chords drawings
tab show chords e-chords YouTube Clip e-chords hide all tabs e-chords go to top tab

share