Soulfly

Flyhigh

Soulfly

tabs

by  MAX(BA)

save to print version add songbook text version e-mail correct tuner
chordsukulelecavacokeyboardtabbassdrumsharmonicaflute Guitar Pro
close

there isn't a video lesson for this song

chords

Flyhigh

	  		up the power metal and hardcore 
  
 ------------------------------------------------------------------------------ 
 ------------------------------------------------------------------------------ 
 ------------------------------------------------------------------------------ 
 ------------------------------------------------------------------------------ 
 -8-----0-----8-----9--8--8--8--8-----------8-----9--8--8--8--8---------------- 
 -6--0--0--0--6--0--7--6--6--6--6--0--0--0--6--0--7--6--6--6--6-0-0-0---------- 
                                                          Chorus 
  
 -----------------------9/10/11/12/13/14/15------------------------------------ 
 ------------------------------------------------------------------------------ 
 ------------------------------------------------------------------------------ 
 ------------------------------------------------------------------------------ 
 -8-----9--7--7--7--7---------------------------------------------------------- 
 -6--0--7--6--6--6--6---------------------------------------------------------- 
                                                   8 times 
  
 ------------------------------------------------------------------------------ 
 ------------------------------------------------------------------------------ 
 ------------------------------------------------------------------------------ 
 ------------------------------------------------------------------------------ 
 ------------------------------------------------------------------------------ 
 --6767676767676767676767676--------------------------------------------------- 
                                                 1 time         verse1 
  
 ------------------------------------------------------------------------------ 
 ------------------------------------------------------------------------------ 
 ------------------------------------------------------------------------------ 
 ------------------------------------------------------------------------------ 
 ------------------------------------------------------------------------------ 
 ------------------------------------------------------------------------------ 
  Chorus again 
  
 ------------------------------------------------------------------------------ 
 ------------------------------------------------------------------------------ 
 ------------------------------------------------------------------------------ 
 ------------------------------------------------------------------------------ 
 ------------------------------------------------------------------------------ 
 ------------------------------------------------------------------------------ 
  verse 1 again 
  
 ------------------------------------------------------------------------------ 
 ------------------------------------------------------------------------------ 
 ------------------------------------------------------------------------------ 
 ------------------------------------------------------------------------------ 
 ------------t----------------------------------------------------------------- 
 --7-------7-9----------------------------------------------------------------- 
                                    verse 2.a                  4 times 
  
 ------------------------------------------------------------------------------ 
 ---5------5------5-----5------------------------------------------------------ 
 ---5------5------5-----5------------------------------------------------------ 
 ---6------6------6-----6------------------------------------------------------ 
 ------------------------------------------------------------------------------ 
 ------------------------------------------------------------------------------ 
   verse2.b             use tremolo bar                   4 times 
  
 ------------------------------------------------------------------------------ 
 ------------------------------------------------------------------------------ 
 ------------------------------------------------------------------------------ 
 ------------------------------------------------------------------------------ 
 ------------------------------------------------------------------------------ 
 ------------------------------------------------------------------------------ 
                          Chorus again 
  
 ------------------------------------------------------------------------------ 
 ------------------------------------------------------------------------------ 
 ------------------------------------------------------------------------------ 
 ------------------------------------------------------------------------------ 
 ------------------------------------------------------------------------------ 
 ------------------------------------------------------------------------------ 
  verse 1 again 
  
 ------------------------------------------------------------------------------ 
 ------------------------------------------------------------------------------ 
 ------------------------------------------------------------------------------ 
 ------------------------------------------------------------------------------ 
 ------------------------------------------------------------------------------ 
 ------------------------------------------------------------------------------ 
  Chorus again 
  
 ------------------------------------------------------------------------------ 
 ------------------------------------------------------------------------------ 
 ------------------------------------------------------------------------------ 
 ------------------------------------------------------------------------------ 
 ------------------------------------------------------------------------------ 
 ------------------------------------------------------------------------------ 
  verse 1 again      then verse 2.a then 2.b 
  
 ------------------------------------------------------------------------------ 
 ------------------------------------------------------------------------------ 
 ---7-------------------------------------------------------------------------- 
 ------------------------------------------------------------------------------ 
 ------------------------------------------------------------------------------ 
 ------66666666---------------------------------------------------------------- 
                                 until end
		  

See also:

tabs Rancid - Time Bomb tabs Avenged Sevenfold - Seize The Day tabs Pennywise - Bro Hymn tabs Sting and david Craig - rise and fall tabs Trivium - Pull Harder On The Strings Of Your Martyr tabs New Found Glory - My heart will go on
e-chords

Other versions:

tabs Soulfly - Flyhigh
auto scroll beats size up size down change color hide chords drawings
tab show chords e-chords YouTube Clip e-chords hide all tabs e-chords go to top tab

share