Soulfly

Fire

Soulfly

tabs

by  MAX(BA)

save to print version add songbook text version e-mail correct tuner
chordsukulelecavacokeyboardtabbassdrumsharmonicaflute Guitar Pro
close

there isn't a video lesson for this song

chords

Fire

	  		Tune down to B (B E A D F# B) 
  
 LEGEND: 
 	/ or \ - slide up or down 
 	~~     - vibrato 
 	p      - pull off 
   	h	 - hammer on 
  	b	 - bend 
 	N	 - natural harmonics 
 	A	 - artifical harmonics 
 	*	 - palm mute 
 	trem.  - tremelo pick 
         ^	 - arpeggiate 
  
 ---------------------------------------------------------------------------- 
  
 Verse 
  
 B|------------------------------------| 
 F|------------------------------------| 
 D|------------------------------------| 
 A|------------------------------------| 
 E|------------------------------------| 
 B|-0-0-0-0-6-0-6-0-6-0-0-0-0-0-0-0-0--| 
  
 Chorus 
  
 B|------------------------| 
 F|------------------------| 
 D|------------------------| 
 A|------------------------| 
 E|-3-5-3-6-3-5-3-2-x-x-2--| 
 B|-1-3-1-4-1-3-1-0-x-x-0--| 
  
 Post-Chorus 
  
 B|----------| 
 F|----------| 
 D|----------| 
 A|----------| 
 E|-3-5-3-6--| 
 B|-1-3-1-4--| 
  
 Post-Bridge (you'll hear it!) 
  
 B|-----------------------------| 
 F|-----------------------------| 
 D|-----------------------------| 
 A|-----------------------------| 
 E|-2-2-2-2-2-2-2-2-2-2-2-2-----| 
 B|-0-0-0-0-0-0-0-0-0-0-0-0-----| 
    * * * * * * * * * * * * 
  
 Fill One 
  
 B|-----------------------------------------------------------------| 
 F|-----------------------------------------------------------------| 
 D|-----------------------------------------------------------------| 
 A|-----------------------------------------------------------------| 
 E|-----------------------------------------------------------------| 
 B|-0-19\-0-0-0-0--0-20\-0-0-0-0--0-20\-0-0-0-0--0-20\-0-0-0-0------| 
  
 Solo (backed by Guitar One playing Fill One, w/ flanger) 
  
 B|-----------------------------| 
 F|-----------------------------| 
 D|--9-x-11-x-12-x-14-x-17------| 
 A|-----------------------------| 
 E|--7-x--9-x-10-x-12-x-15------| 
 B|-----------------------------| 
  
 B|-15----------/17---------/18--------------------------------------------------------| 
 F|---trem.---------trem.-------trem.--------------------------------------------------| 
 D|-12----------/14---------/15-------------------12-14-12--14p12----------------------| 
 A|--------------------------------------14-12h14-----------------14-12h14--14-14p12---| 
 E|------------------------------------------------------------------------------------| 
 B|------------------------------------------------------------------------------------| 
  
 B|---------------------------------------------15b---15b--15-12----12-15-12h15p12-----| 
 F|---------------------------------------------15b--------------15--------------------| 
 D|------------------------------------------------------------------------------------| 
 A|------------------------------------x-x-x-------------------------------------------| 
 E|-14-12/14-12----12b-12b-1b2-12b-12b-x-x-x-------------------------------------------| 
 B|------------------------------------------------------------------------------------| 
  
 B|-------12-----------------------------------------19--trem.-------------------------| 
 F|-15-12----15-12-15-12--------A------15------------19--------------------------------| 
 D|-----------------------14---14b--14-----12b-----------------------------------------| 
 A|---------------------------------------(12)b----------------------------------------| 
 E|------------------------------------------------------------------------------------| 
 B|------------------------------------------------------------------------------------| 
  
 Outro 
  
 B|------------------| 
 F|------------------| 
 D|------------------| 
 A|------------------| 
 E|------------------| 
 B|-6-0--0-0-0-0-0---| 
 

		  

See also:

tabs X-files - Theme Song tabs Eddie Cochran - Summer time blues tabs Tenacious D - Wonderboy (ver. 1) tabs Poison - Unskinny Bop tabs Tenacious D - Her Gently tabs The Donnas - Take It Off
e-chords

Other versions:

tabs Jane's Ground - Fire tabs Jimi Hendrix - Fire tabs Jimi Hendrix Experience - Fire tabs Red Hot Chili Peppers - Fire tabs Soulfly - Fire tabs Yngwie Malmsteen - Fire
auto scroll beats size up size down change color hide chords drawings
tab show chords e-chords YouTube Clip e-chords hide all tabs e-chords go to top tab

share