Soulfly

Bumba

Soulfly

tabs

by  MAX(BA)

save to print version add songbook text version e-mail correct tuner
chordsukulelecavacokeyboardtabbassdrumsharmonicaflute Guitar Pro
close

there isn't a video lesson for this song

chords

Bumba

	  		 Intro (w/ wah, echo and delay) 
  
 B|-------------------------------------------------------------------10----| 
 F|-------------------------------------------------------------------10----| 
 D|-0h1\-------------------------------^-12--^-10---------------------12----| 
 A|------12-x12-x12-x-12-x12-x12-x-x-x-^-12--^-10--12-x-12-x-12-x-x-x-12----| 
 E|------10-x10-x10-x-10-x10-x10-x-x-x-^-10--^--8--10-x-10-x-10-x-x-x-10----| 
 B|------------------------------------------^--8---------------------10----| 
  
 B|---------------------------------------| 
 F|---------------------------------------| 
 D|-9/16-----12---9--10-------------------| 
 A|-9/16-----12---9--10--10-10-10-10-10---| 
 E|-7/14-----10---7---8---8--8--8--8--8---| 
 B|---------------------------------------| 
 grad. release effects 
  
 B|-----------------------------| 
 F|-----------------------------| 
 D|-----------------------------| 
 A|-----------------------------| 
 E|-2---------------------------| 
 B|-0-0-0-0-0-0-0-0-0-0-etc.----| 
 * * * * * * * * * 
  
 Verse 
  
 B|----------------------------------| 
 F|----------------------------------| 
 D|----------------------------------| 
 A|----------------------------------| 
 E|-2---------------------------6----| 
 B|-0-0-0-0-0-0-0-0-0-0-0-0-0-0-4----| 
 * * * * * * * * * * * * * 
  
 Chorus 
  
 B|--------------------------------------------------| 
 F|--------------------------------------------------| 
 D|--------------------------------------------------| 
 A|--------------------------------------------------| 
 E|-6-6--6-6--6-6--6-6--6-7--6-6--6-6--6-6--6-6--6-3-| 
 B|-4-4--4-4--4-4--4-4--4-5--4-4--4-4--4-4--4-4--4-1-| 
  
 B|--------------------------| 
 F|--------------------------| 
 D|--------------------------| 
 A|--------------------------| 
 E|-6-6--6-6--6-6--6-6--6-7--| 
 B|-4-4--4-4--4-4--4-4--4-5--| 
  
 Post-Chorus (1st time only, improvise. Use echo, wah 
 and delay) 
  
 B|------------------| 
 F|------------------| 
 D|------------------| 
 A|-12-x-12-x-12-----| 
 E|-10-x-10-x-10-----| 
 B|------------------| 
  
 Bridge 
  
 B|-----------------------| 
 F|-----------------------| 
 D|-----------------------| 
 A|-----------------------| 
 E|-----------------------| 
 B|-2-0-4-0-2-0-4-0-2-0---| 
  
 

		  

See also:

tabs Tenacious D - Her Gently tabs Trivium - Pull Harder On The Strings Of Your Martyr tabs Jesus Christ Superstar - Overture tabs Tenacious D - Its A Long Way To The Top tabs Tenacious D - One Note Song tabs Tenacious D - Wonderboy (ver. 1)
e-chords

Other versions:

tabs Soulfly - Bumba
auto scroll beats size up size down change color hide chords drawings
tab show chords e-chords YouTube Clip e-chords hide all tabs e-chords go to top tab

share