Shinedown

Trade Yourself In

Shinedown

tabs

by  FAMOUSA

save to print version add songbook text version e-mail correct tuner
chordsukulelecavacokeyboardtabbassdrumsharmonicaflute Guitar Pro
close

there isn't a video lesson for this song

chords

Trade Yourself In

	  		INTRO 
 
Eb|-----------------------------------------------------------------------| 
Bb|-----6-6-6-6-5-5-5-5------------6-6-6-6-5-5-5-5------------6-6-6-6-5-5-| 
Gb|---------------------5-5-5-5--------------------5-5-5-5----------------| 
Db|---0--------------------------0--------------------------0-------------| 
Ab|---0--------------------------0--------------------------0-------------| 
Db|---0--------------------------0--------------------------0-------------| 
 
Eb|-----------------------------------------------------------------------| 
Bb|-------8-8-5-5--------------------------------5h6-5--------------------| 
Gb|---5-5----------------------------------------------7-5----------------| 
Db|-------------------8-8---8-8---8---12---10-12-----------7--12---10-12--| 
Ab|-------------------8-8---8-8---8---12---10-12--------------12---10-12--| 
Db|-----------------8-8-8-8-8-8-8-8---12---10-12--------------12---10-12--| 
 
PRE-VERSE 
 
Eb|-----------------------------------------------------------------------| 
Bb|--------------5h6-5--------------------------------------5h6-5---------| 
Gb|--------------------7-5----------------------------------------7-5-----| 
Db|---12---10-12-----------7--12---10-12---3-3---12---10-12-----------7---| 
Ab|---12---10-12--------------12---10-12---3-3---12---10-12---------------| 
Db|---12---10-12--------------12---10-12---3-3---12---10-12---------------| 
 
Eb|-----------------------------------------------------------------------| 
Bb|-----------------------------------------------------------------------| 
Gb|-----------------------------------------------------------------------| 
Db|-------8-------7-------------------------------------------------------| 
Ab|-------8-------7-------------------------------------------------------| 
Db|---8-8-8---7-7-7-------------------------------------------------------| 
 
VERSE 
 
Eb|-----------------------------------------------------------------------| 
Bb|---------------5h6-5------------------------------------------5h6-5----| 
Gb|---------------------7-5----------------10b(full)-------------------7--| 
Db|---12---10-12------------7--12---10-12------------12---10-12-----------| 
Ab|---12---10-12---------------12---10-12------------12---10-12-----------| 
Db|---12---10-12---------------12---10-12------------12---10-12-----------| 
 
Eb|-----------------------------------------------------------------------| 
Bb|-----------------------------------5h6-5-------------------------------| 
Gb|---5-------------------------------------7-5---------------------------| 
Db|-----7------8------7---12---10-12------------7--12---10-12---3-3----12-| 
Ab|------------8------7---12---10-12---------------12---10-12---3-3----12-| 
Db|--------8-8-8--7-7-7---12---10-12---------------12---10-12---3-3----12-| 
 
Eb|-----------------------------------------------------------------------| 
Bb|----------5h6-5--------------------------------------------------------| 
Gb|----------------7-5----------------------------------------------------| 
Db|---10-12------------7------8------7------------------------------------| 
Ab|---10-12-------------------8------7------------------------------------| 
Db|---10-12---------------8-8-8--7-7-7------------------------------------| 
 
PRE-Chorus 
 
Eb|-----------------------------------------------------------------------| 
Bb|-----------------------------------------------------------------------| 
Gb|-----------------------------------------------------------------------| 
Db|---8-8---12-12---15-15---17-17---8-8---12-12---8-----------------------| 
Ab|---8-8---12-12---15-15---17-17---8-8---12-12---8-----------------------| 
Db|---8-8---12-12---15-15---17-17---8-8---12-12---8-----------------------| 
 
Chorus 
 
Eb|-----------------------------------------------------------------------| 
Bb|-----------------------------------------------------------------------| 
Gb|-----------------------------------------------------------------------| 
Db|---12---15---8---7---5--5---3-----8-8---8-8-----12---15---8---7---5--5-| 
Ab|---12---15---8---7---5--5---3-----8-8---8-8-----12---15---8---7---5--5-| 
Db|---12---15---8---7---5--5---3---8-8-8-8-8-8-----12---15---8---7---5--5-| 
 
Eb|-----------------------------------------------------------------------| 
Bb|-----------------------------------------------------------------------| 
Gb|-----------------------------------------------------------------------| 
Db|---3-----8-8---8-8-----------------------------------------------------| 
Ab|---3-----8-8---8-8-----------------------------------------------------| 
Db|---3---8-8-8-8-8-8-----------------------------------------------------| 
 
PRE-VERSE 
 
Eb|-----------------------------------------------------------------------| 
Bb|--------------5h6-5--------------------------------------5h6-5---------| 
Gb|--------------------7-5----------------------------------------7-5-----| 
Db|---12---10-12-----------7--12---10-12---3-3---12---10-12-----------7---| 
Ab|---12---10-12--------------12---10-12---3-3---12---10-12---------------| 
Db|---12---10-12--------------12---10-12---3-3---12---10-12---------------| 
 
Eb|-----------------------------------------------------------------------| 
Bb|-----------------------------------------------------------------------| 
Gb|-----------------------------------------------------------------------| 
Db|-------8-------7-------------------------------------------------------| 
Ab|-------8-------7-------------------------------------------------------| 
Db|---8-8-8---7-7-7-------------------------------------------------------| 
 
VERSE II 
 
Eb|-----------------------------------------------------------------------| 
Bb|---------------5h6-5------------------------------------------5h6-5----| 
Gb|---------------------7-5----------------10b(full)-------------------7--| 
Db|---12---10-12------------7--12---10-12------------12---10-12-----------| 
Ab|---12---10-12---------------12---10-12------------12---10-12-----------| 
Db|---12---10-12---------------12---10-12------------12---10-12-----------| 
 
Eb|-----------------------------------------------------------------------| 
Bb|-----------------------------------5h6-5-------------------------------| 
Gb|---5-------------------------------------7-5---------------------------| 
Db|-----7------8------7---12---10-12------------7--12---10-12---3-3----12-| 
Ab|------------8------7---12---10-12---------------12---10-12---3-3----12-| 
Db|--------8-8-8--7-7-7---12---10-12---------------12---10-12---3-3----12-| 
 
Eb|-----------------------------------------------------------------------| 
Bb|----------5h6-5--------------------------------------------------------| 
Gb|----------------7-5----------------------------------------------------| 
Db|---10-12------------7------8------7------------------------------------| 
Ab|---10-12-------------------8------7------------------------------------| 
Db|---10-12---------------8-8-8--7-7-7------------------------------------| 
 
PRE-Chorus 
 
Eb|-----------------------------------------------------------------------| 
Bb|-----------------------------------------------------------------------| 
Gb|-----------------------------------------------------------------------| 
Db|---8-8---12-12---15-15---17-17---8-8---12-12---8-----------------------| 
Ab|---8-8---12-12---15-15---17-17---8-8---12-12---8-----------------------| 
Db|---8-8---12-12---15-15---17-17---8-8---12-12---8-----------------------| 
 
Chorus 
 
Eb|-----------------------------------------------------------------------| 
Bb|-----------------------------------------------------------------------| 
Gb|-----------------------------------------------------------------------| 
Db|---12---15---8---7---5--5---3-----8-8---8-8-----12---15---8---7---5--5-| 
Ab|---12---15---8---7---5--5---3-----8-8---8-8-----12---15---8---7---5--5-| 
Db|---12---15---8---7---5--5---3---8-8-8-8-8-8-----12---15---8---7---5--5-| 
 
Eb|-----------------------------------------------------------------------| 
Bb|-----------------------------------------------------------------------| 
Gb|-----------------------------------------------------------------------| 
Db|---3-----8-8---8-8-----------------------------------------------------| 
Ab|---3-----8-8---8-8-----------------------------------------------------| 
Db|---3---8-8-8-8-8-8-----------------------------------------------------| 
 
SOLO 
 
Eb|------------------------------------------------------------------------| 
Bb|---10h11p10h11p10-----------------------------------------10h11p10h11p10| 
Gb|------------------9h10p9h10p9-------------------------------------------| 
Db|------------------------------7h8p7h8p7--8-8--0--8-8--0--8--------------| 
Ab|-----------------------------------------8-8--0--8-8--0--8--------------| 
Db|-----------------------------------------8-8--0--8-8--0--8--------------| 
 
Eb|-------------------------------------------------------------------------| 
Bb|-----------------------------------------------------13--12--10--10h12---| 
Gb|---9h10p9h10p9------------------------------------10---------------------| 
Db|---------------7h8p7h8p7--8-8--0--8-8--0--8---12-------------------------| 
Ab|--------------------------8-8--0--8-8--0--8------------------------------| 
Db|--------------------------8-8--0--8-8--0--8------------------------------| 
 
Eb|-------------------------------------------------13-15~~~----------------| 
Bb|---12p10--------------------10-12-13-14-12-10-14-------------------------| 
Gb|---------12p10----10-12--12----------------------------------------------| 
Db|---------------12--------------------------------------------------------| 
Ab|-------------------------------------------------------------------------| 
Db|-------------------------------------------------------------------------| 
 
Chorus 
 
Eb|-----------------------------------------------------------------------| 
Bb|-----------------------------------------------------------------------| 
Gb|-----------------------------------------------------------------------| 
Db|---12---15---8---7---5--5---3-----8-8---8-8-----12---15---8---7---5--5-| 
Ab|---12---15---8---7---5--5---3-----8-8---8-8-----12---15---8---7---5--5-| 
Db|---12---15---8---7---5--5---3---8-8-8-8-8-8-----12---15---8---7---5--5-| 
 
Eb|-----------------------------------------------------------------------| 
Bb|-----------------------------------------------------------------------| 
Gb|-----------------------------------------------------------------------| 
Db|---3-----8-8---8-8-----------------------------------------------------| 
Ab|---3-----8-8---8-8-----------------------------------------------------| 
Db|---3---8-8-8-8-8-8-----------------------------------------------------| 
 
Eb|-----------------------------------------------------------------------| 
Bb|-----------------------------------------------------------------------| 
Gb|-----------------------------------------------------------------------| 
Db|---12---15---8---7---5--5---3-----8-8---8-8-----12---15---8---7---5--5-| 
Ab|---12---15---8---7---5--5---3-----8-8---8-8-----12---15---8---7---5--5-| 
Db|---12---15---8---7---5--5---3---8-8-8-8-8-8-----12---15---8---7---5--5-| 
 
Eb|-----------------------------------------------------------------------| 
Bb|-----------------------------------------------------------------------| 
Gb|-----------------------------------------------------------------------| 
Db|---3-----8-8---8-8-----------------------------------------------------| 
Ab|---3-----8-8---8-8-----------------------------------------------------| 
Db|---3---8-8-8-8-8-8-----------------------------------------------------| 
 
OUTRO 
 
Eb|------------------------------------------------------------------------| 
Bb|---10h11p10h11p10-----------------------------------------10h11p10h11p10| 
Gb|------------------9h10p9h10p9-------------------------------------------| 
Db|------------------------------7h8p7h8p7--8-8--0--8-8--0--8--------------| 
Ab|-----------------------------------------8-8--0--8-8--0--8--------------| 
Db|-----------------------------------------8-8--0--8-8--0--8--------------| 
 
Eb|------------------------------------------------------------------------| 
Bb|------------------------------------------------------------------------| 
Gb|---9h10p9h10p9----------------------------------------------------------| 
Db|---------------7h8p7h8p7--8-8--0--8-8--0--8-----------------------------| 
Ab|--------------------------8-8--0--8-8--0--8-----------------------------| 
Db|--------------------------8-8--0--8-8--0--8-----------------------------| 
 
NOTE: Unique guitaring in there from Jasin Todd (the greatest). The Intro 
      and the verse are the only things I can't seem to budge, I'm still 
      workin though. The Chorus is easy though, and the solo isn't so 
      bad. Nothing you can't do without alittle work. 
      Well... ...ENJOY!!! 
 
                        -Asa 

		  

See also:

tabs Bon Jovi - It's My Life tabs Kiss - Forever tabs Aerosmith - Dream On tabs Foo Fighters - Everlong (acústico) tabs The Doors - People Are Strange tabs The Offspring - All I Want
e-chords

Other versions:

tabs Shinedown - Trade Yourself In
auto scroll beats size up size down change color hide chords drawings
tab show chords e-chords YouTube Clip e-chords hide all tabs e-chords go to top tab

share