Royal Republic

Vicious

Royal Republic

tabs

by  CARLLUZ

save to print version add songbook text version e-mail correct tuner
chordsukulelecavacokeyboardtabbassdrumsharmonicaflute Guitar Pro
close

there isn't a video lesson for this song

chords

Vicious

	  		



verse 1 

e|---------------------------------| 
B|---------------------------------| 
G|---------------------------------| 
D|---------------------------------| 
A|-7-7-7-7-7-7-7-7-7-7-7-7-7-7-7-7-| 
E|---------------------------------| x8 



Refrain 1 


e|-7---------------5-----3---------| 
B|-7---------------5-----3---------| 
G|-8---------------6-----4---------| 
D|-9---------------7-----5---------| 
A|-9---------------7-----5---------| 
E|-7---------------5-----3---------| 


e|-0-------------------------------| 
B|-0-------------------------------| 
G|-1-------------------------------| 
D|-2-------------------------------| 
A|-2-------------------------------| 
E|-0-------------------------------| 
   


verse 2 

e|---------------------------------| 
B|---------------------------------| 
G|---------------------------------| 
D|---------------------------------| 
A|-7-7-7-7-7-7-7-7-7-7-7-7-7-7-7-7-| 
E|---------------------------------| x8 



Refrain 2 


e|-7---------------5-----3---------| 
B|-7---------------5-----3---------| 
G|-8---------------6-----4---------| 
D|-9---------------7-----5---------| 
A|-9---------------7-----5---------| 
E|-7---------------5-----3---------| 


e|-0-------------------------------| 
B|-0-------------------------------| 
G|-1-------------------------------| 
D|-2-------------------------------| 
A|-2-------------------------------| 
E|-0-------------------------------| 



verse 3 

e|---------------------------------| 
B|---------------------------------| 
G|---------------------------------| 
D|---------------------------------| 
A|-7-7-7-7-7-7-7-7-7-7-7-7-7-7-7-7-| 
E|---------------------------------| x8 



Refrain 3 


e|-7---------------5-----3---------| 
B|-7---------------5-----3---------| 
G|-8---------------6-----4---------| 
D|-9---------------7-----5---------| 
A|-9---------------7-----5---------| 
E|-7---------------5-----3---------| 


e|-0-------------------------------| 
B|-0-------------------------------| 
G|-1-------------------------------| 
D|-2-------------------------------| 
A|-2-------------------------------| 
E|-0-------------------------------| 



Solo 


e|---------------------------------| 
B|---------------------------------| 
G|---------------------------------| 
D|---------0-----------------------| 
A|-----1-2---2-1-0---0-0-0---0-0-0-| 
E|-0-3-----------------------------| 
   

e|---------------------------------| 
B|---------------------------------| 
G|---------------------------------| 
D|---------0-1-2-------------------| 
A|-----1-2-------0---0-0-0---0-0-0-| 
E|-0-3-----------------------------| 


e|---------------------------------| 
B|---------3-----------------------| 
G|-----3-4---4-3-2---2-2-2---2-2-2-| 
D|-2-5-----------------------------| 
A|---------------------------------| 
E|---------------------------------| 


e|-------------------------5-3-----| 
B|---------3-4-5-------2-5---------| 
G|-----3-4-------2---5-----------5-| 
D|-2-5-----------------------------| 
A|---------------------------------| 
E|---------------------------------| 


e|---------8-6-------------1010----| that's 2 10' 
B|-----5-8-------------7-10--------| 
G|---8-----------7---10----------9-| 
D|-------------------------------9-| 
A|-------------------------------7-| 
E|---------------------------------| 




verse 4 

e|---------------------------------| 
B|---------------------------------| 
G|-9 ~ ----------------------------| 
D|-9 ~ ----------------------------| 
A|-7 ~ ----------------------------| 
E|---------------------------------| 


e|---------------------------------| 
B|---------------------------------| 
G|---------------------------------| 
D|---------------------------------| 
A|---------------------------------| 
E|---------------------------------| 
   

e|---------------------------------| 
B|---------------------------------| 
G|-9 ~ ----------------------------| 
D|-9 ~ ----------------------------| 
A|-7 ~ ----------------------------| 
E|---------------------------------| 


e|---------------------------------| 
B|---------------------------------| 
G|---------------------------------| 
D|---------------------------------| 
A|---------------------------------| 
E|---------------------------------| x3 


e|---------------------------------| 
B|---------------------------------| 
G|---------------------------------| 
D|---------------------------------| 
A|-7-7-7-7-7-7-7-7-7-7-7-7-7-7-7-7-| 
E|---------------------------------| x4 



Refrain 4 


e|-7---------------5-----3-------7-| 
B|-7---------------5-----3-------7-| 
G|-8---------------6-----4-------8-| 
D|-9---------------7-----5-------9-| 
A|-9---------------7-----5-------9-| 
E|-7---------------5-----3-------7-| 


e|-----------------5-----3-------7-| 
B|-----------------5-----3-------7-| 
G|-----------------6-----4-------8-| 
D|-----------------7-----5-------9-| 
A|-----------------7-----5-------9-| 
E|-----------------5-----3-------7-| 


e|-----------------5-----3---------| 
B|-----------------5-----3---------| 
G|-----------------6-----4---------| 
D|-----------------7-----5---------| 
A|-----------------7-----5---------| 
E|-----------------5-----3---------| 


e|-0-------------------------------| 
B|-0-------------------------------| 
G|-1-------------------------------| 
D|-2-------------------------------| 
A|-2-------------------------------| 
E|-0-------------------------------| 
		  

See also:

tabs Refused - Dawkins Christ tabs Royal Republic - Full Steam Spacemachine tabs Opeth - Slither tabs Änglagård - Jordrök tabs Opeth - Wreath tabs Evergrey - Blinded (Intro)
e-chords

Other versions:

tabs Royal Republic - Vicious tabs Krisiun - Vicious Wrath (intro)
auto scroll beats size up size down change color hide chords drawings
tab show chords e-chords YouTube Clip e-chords hide all tabs e-chords go to top tab

share