Refused

Dawkins Christ

Refused

tabs

by  BRUNBLAZKOWSKI

save to print version add songbook text version e-mail correct tuner
chordsukulelecavacokeyboardtabbassdrumsharmonicaflute Guitar Pro
close

there isn't a video lesson for this song

chords

Dawkins Christ

	  		Intro 

Intro / Verse x3 

e||-------------------------------------------------------------------------------| 
B||-------------------------------------------------------------------------------| 
G||-------------------------------------------------------------------------------| 
D||-------------------------------------------------------------------------------| 
A||-------------------------------------------------------------------------------| 
E||-13p12-0-0-12p0-0-0-0-0-13p12-0-0-12p0-0-0-0-0-12--13--16-16-16-16-13-13-13-13-| 
pm        o o      o o o o       o o      o o o o          o  o  o  o  o  o  o  o   

e||------------------------------------------------------------------------------| 
B||------------------------------------------------------------------------------| 
G||------------------------------------------------------------------------------| 
D||------------------------------------------------------------------------------| 
A||------------------------------------------------------------------------------| 
E||-12p0-0-0-12p0-0-0-0-0-13p12-0-0-12p0-0-0-0-0-12--13--16-16-16-16-13-13-13-13-| 
pm       o o      o o o o       o o      o o o o          o  o  o  o  o  o  o  o 

e||------------------------------------------------------------------------------| 
B||------------------------------------------------------------------------------| 
G||------------------------------------------------------------------------------| 
D||------------------------------------------------------------------------------| 
A||-----------------------------------------------------------5-------2----------| 
E||-12p0-0-0-12p0-0-0-0-0-8p0-0-0-10p0-12p0-10p0-12p0-0-0-0-0-3-------0----------| 
pm       o o      o o o o     o o                     o o o o 


then  

e||-------------------------------------| 
B||-------------------------------------| 
G||-------------------------------------| 
D||-------------------------------------| 
A||------------------------5-------7----| 
E||-13p12-0-0-12p0-0-0-0-0-3---0-0-5----| x8 
pm        o o      o o o o     o o  


The funky part :)   

e||------------------------------------------| 
B||------------------------------------------| 
G||------------------------------------------| 
D||------------------------------------------| 
A||------------------------------------------| 
E||-13p0-11p0-12-0-0-12-0-11-0-15--15-0-11-0-| x8 


Praise the lord! God is dead!  

e||------------------|------------------|------------------|----------------------------| 
B||------------------|------------------|------------------|----------------------------| 
G||-14--11--12-------|-14--11--12-------|-14--11--12-------|-14--11--12----11--7--9-9---| 
D||-14--11--12-------|-14--11--12-------|-14--11--12-------|-14--11--12----11--7--9-9---| 
A||-12--9---10-------|-12--9---10-------|-12--9---10-------|-12--9---10----9---5--7-7---| 
E||------------------|------------------|------------------|----------------------------| x2 


play this part two times  

e||------------------------------------| 
B||------------------------------------| 
G||------------------------------------| 
D||------------------------------------| 
A||------------------------12------14--| 
E||-20p0-17p0-19p0-0-0-0-0-10--0-0-12--| x3 
pm 

e||----------------------------------------| 
B||----------------------------------------| 
G||----------------------------------------| 
D||----------------------------------------| 
A||----------------------------------------| 
E||-20p0-17p0-19p0-15-17-0-14-0-15-0-12-12-| 

then 

e||--------------------------------------| 
B||--------------------------------------| 
G||--------------------------------------| 
D||--------------------------------------| 
A||-------------------------------14-14--| 
E||-20p0-17p0-19p0-15-17--14--15--0--0---| x4 

e||---------------------------------| 
B||---------------------------------| 
G||---------------------------------| 
D||---------------------------------| 
A||---------------------------------| 
E||-20p0-17p0-19p0-15-17--14--15--0-| x3  

e||--------------------------------------| 
B||--------------------------------------| 
G||--------------------------------------| 
D||--------------------------------------| 
A||-------------------------------14-14--| 
E||-20p0-17p0-19p0-15-17--14--15--0--0---| 


back to this intro / verse part 

e||-------------------------------------------------------------------------------| 
B||-------------------------------------------------------------------------------| 
G||-------------------------------------------------------------------------------| 
D||-------------------------------------------------------------------------------| 
A||-------------------------------------------------------------------------------| 
E||-13p12-0-0-12p0-0-0-0-0-13p12-0-0-12p0-0-0-0-0-12--13--16-16-16-16-13-13-13-13-| 
pm        o o      o o o o       o o      o o o o          o  o  o  o  o  o  o  o   

e||------------------------------------------------------------------------------| 
B||------------------------------------------------------------------------------| 
G||------------------------------------------------------------------------------| 
D||------------------------------------------------------------------------------| 
A||------------------------------------------------------------------------------| 
E||-12p0-0-0-12p0-0-0-0-0-13p12-0-0-12p0-0-0-0-0-12--13--16-16-16-16-13-13-13-13-| 
pm       o o      o o o o       o o      o o o o          o  o  o  o  o  o  o  o 

e||------------------------------------------------------------------------------| 
B||------------------------------------------------------------------------------| 
G||------------------------------------------------------------------------------| 
D||------------------------------------------------------------------------------| 
A||-----------------------------------------------------------5-------2----------| 
E||-12p0-0-0-12p0-0-0-0-0-8p0-0-0-10p0-12p0-10p0-12p0-0-0-0-0-3-------0----------| 
pm       o o      o o o o     o o                     o o o o 


Outro 


e||------------------------------------| 
B||------------------------------------| 
G||------------------------------------| 
D||------------------------------------| 
A||------------------------12------14--| 
E||-17p0-14p0-15p0-0-0-0-0-10--0-0-12--| x3 
pm                 o o o o     o o 

e||-----------------------------------| 
B||-----------------------------------| 
G||-----------------------------------| 
D||-----------------------------------| 
A||-----------------------------------| 
E||-17p0-14p0-15p0-12-14-0-10-0-12----| 


e||------------------------------------| 
B||------------------------------------| 
G||------------------------------------| 
D||------------------------------------| 
A||------------------------12------14--| 
E||-20p0-17p0-19p0-0-0-0-0-10--0-0-12--| x3 
pm                 0 0 0 0     0 0  

e||----------------------------------------| 
B||----------------------------------------| 
G||----------------------------------------| 
D||----------------------------------------| 
A||----------------------------------14-14-| 
E||-20p0-17p0-19p0-15-17-0-14-0-15-0--0--0-| 

e||------------------------------------------| 
B||----------------------------------17-17---| 
G||----------------------------------16-16---| 
D||----------------------------------14-14---| 
A||----------------------------------14-14---| 
E||-20p0-17p0-19p0-15-17-0-14-0-15-0--0--0---| 


Please correct me if you got any ideas on how to play it :)   

Enjoy! 
		  

See also:

tabs Royal Republic - Full Steam Spacemachine tabs The Sounds - No One Sleeps When I'm Awake tabs Opeth - Wreath tabs The Radio Dept - Slottet 2 tabs The Royal Concept - Gimme Twice (intro) tabs Opeth - Slither
e-chords

Other versions:

tabs Refused - Dawkins Christ
auto scroll beats size up size down change color hide chords drawings
tab show chords e-chords YouTube Clip e-chords hide all tabs e-chords go to top tab

share