Royal Republic

Weekend Man

Royal Republic

tabs

by  BRUNBLAZKOWSKI

save to print version add songbook text version e-mail correct tuner
chordsukulelecavacokeyboardtabbassdrumsharmonicaflute Guitar Pro
close

there isn't a video lesson for this song

chords

Weekend Man

	  		
Intro 

e|---------------------------------|---------------------------------| 
H|---------------------------------|---------------------------------| 
G|---------------------------------|---------------------------------| 
D|---------------------------------|---------------------------------| 
A|----/7------/5-------7--/10--7---|----/7---5---7-------5-------7---| 
E|-0-------0-------0---------------|-0---------------7-------3-------| 

e|---------------------------------|---------------------------------| 
H|---------------------------------|---------------------------------| 
G|---------------------------------|---------------------------------| 
D|-----10------9-------7---5---4---|---------------------------------| 
A|-0-------0-------0---------------|----/7---5---7-------------------| 
E|---------------------------------|-0---------------7---5---3---5---| 

e|---------------------------------|---------------------------------| 
H|---------------------------------|---------------------------------| 
G|---------------------------------|---------------------------------| 
D|---------------------------------|---------------------------------| 
A|----/7------/5-------7--/10--7---|----/7---5---7-------5-------7---| 
E|-0-------0-------0---------------|-0---------------7-------3-------| 

e|---------------------------------|---------------------------------| 
H|---------------------------------|---------------------------------| 
G|---------------------------------|---------------------------------| 
D|-----10------9---7---6---5---4---|---------------------------------| 
A|-0-------0-----------------------|----/7---5---7-------------------| 
E|---------------------------------|-0---------------7---5---3---5---| 


Verse 

e|---------------------------------|---------------------------------| 
H|---------------------------------|---------------------------------| 
G|-----9-------9-------9-------7/9-|-----9-------9-------9-------7/9-| 
D|-----x-------x-------x-------x/x-|-----x-------x-------x-------x/x-| 
A|-----7-------7-------7-------5/7-|-----7-------7-------7-------5/7-| 
E|---------------------------------|---------------------------------| 

e|---------------------------------|---------------------------------| 
H|---------------------------------|---------------------------------| 
G|-----14------14------14------7/9-|-----9-------9-------------------| 
D|-----x-------x-------x-------x/x-|-----x-------x-------------------| 
A|-----12------12------12------5/7-|-----7-------7-------------------| 
E|---------------------------------|-----------------7---5---3---5---| 

e|---------------------------------|---------------------------------| 
H|---------------------------------|---------------------------------| 
G|-----9-------9-------9-------7/9-|-----9-------9-------9-------7/9-| 
D|-----x-------x-------x-------x/x-|-----x-------x-------x-------x/x-| 
A|-----7-------7-------7-------5/7-|-----7-------7-------7-------5/7-| 
E|---------------------------------|---------------------------------| 

e|---------------------------------|---------------------------------| 
H|---------------------------------|---------------------------------| 
G|-----14------14------14------7/9-|-----9-------9-------------------| 
D|-----x-------x-------x-------x/x-|-----x-------x-------------------| 
A|-----12------12------12------5/7-|-----7-------7-------------------| 
E|---------------------------------|-----------------7---5---3---0---| 

Pre-Chorus 

e|---------------------------------|---------------------------------| 
H|---------------------------------|---------------------------------| 
G|---------------------------------|---------------------------------| 
D|---------------------------------|---------------------------------| 
A|---------3-----------------------|-3---------------10--12--10--9---| 
E|-5---------------5---0---3---5---|---------5-----------------------| 


Chorus 

e|---------------------------------|---------------------------------| 
H|---------------------------------|---------------------------------| 
G|---------------------------------|---------------------------------| 
D|-----------------5---------------|-----------------5---------------| 
A|-----5---6---7-------7---5---7---|-----5---6---7-------7---5---7---| 
E|-3-------------------------------|-0-------------------------------| 

e|---------------------------------|---------------------------------| 
H|---------------------------------|---------------------------------| 
G|---------------------------------|---------------------------------| 
D|-----------------5---------------|---------------------------------| 
A|-----5---6---7-------7---5---7---|-----7---5---7-------------------| 
E|-5-------------------------------|-0---------------7---5---3---5---| 

e|---------------------------------|---------------------------------| 
H|---------------------------------|---------------------------------| 
G|---------------------------------|---------------------------------| 
D|-----------------5---------------|-----------------5---------------| 
A|-----5---6---7-------7---5---7---|-----5---6---7-------7---5---7---| 
E|-3-------------------------------|-0-------------------------------| 

e|---------------------------------|---------------------------------|---------------------------------| 
H|---------------------------------|---------------------------------|---------------------------------| 
G|---------------------------------|---------------------------------|---------------------------------| 
D|-----------------5---------------|---------------------------------|---------------------------------| 
A|-----5---6---7-------7---5---7---|----/7------/5-------7--/10--7---|----/7---5---7-------------------| 
E|-5-------------------------------|-0-------0-------0---------------|-0---------------7---5---3---5---| 


Verse 

e|---------------------------------|---------------------------------| 
H|---------------------------------|---------------------------------| 
G|-----9-------9-------9-------7/9-|-----9-------9-------9-------7/9-| 
D|-----x-------x-------x-------x/x-|-----x-------x-------x-------x/x-| 
A|-----7-------7-------7-------5/7-|-----7-------7-------7-------5/7-| 
E|---------------------------------|---------------------------------| 

e|---------------------------------|---------------------------------| 
H|---------------------------------|---------------------------------| 
G|-----14------14------14------7/9-|-----9-------9-------------------| 
D|-----x-------x-------x-------x/x-|-----x-------x-------------------| 
A|-----12------12------12------5/7-|-----7-------7-------------------| 
E|---------------------------------|-----------------3---5---6---7---| 

e|---------------------------------|---------------------------------| 
H|---------------------------------|---------------------------------| 
G|-----9-------9-------9-------7/9-|-----9-------9-------9-------7/9-| 
D|-----x-------x-------x-------x/x-|-----x-------x-------x-------x/x-| 
A|-----7-------7-------7-------5/7-|-----7-------7-------7-------5/7-| 
E|---------------------------------|---------------------------------| 

e|---------------------------------|---------------------------------| 
H|---------------------------------|---------------------------------| 
G|-----14------14------14------7/9-|-----9-------9-------------------| 
D|-----x-------x-------x-------x/x-|-----x-------x-------------------| 
A|-----12------12------12------5/7-|-----7-------7-------------------| 
E|---------------------------------|-----------------7---5---3---0---| 


Pre-Chorus 

e|---------------------------------|---------------------------------| 
H|---------------------------------|---------------------------------| 
G|---------------------------------|---------------------------------| 
D|---------------------------------|---------------------------------| 
A|---------3-----------------------|-3-------------------------------| 
E|-5---------------5---0---3---5---|---------5-----------------------| 


Chorus 

e|---------------------------------|---------------------------------| 
H|---------------------------------|---------------------------------| 
G|---------------------------------|---------------------------------| 
D|-----------------5---------------|-----------------5---------------| 
A|-----5---6---7-------7---5---7---|-----5---6---7-------7---5---7---| 
E|-3-------------------------------|-0-------------------------------| 

e|---------------------------------|---------------------------------| 
H|---------------------------------|---------------------------------| 
G|---------------------------------|---------------------------------| 
D|-----------------5---------------|---------------------------------| 
A|-----5---6---7-------7---5---7---|-----7---5---7-------------------| 
E|-5-------------------------------|-0---------------7---5---3---5---| 

e|---------------------------------|---------------------------------| 
H|---------------------------------|---------------------------------| 
G|---------------------------------|---------------------------------| 
D|-----------------5---------------|-----------------5---------------| 
A|-----5---6---7-------7---5---7---|-----5---6---7-------7---5---7---| 
E|-3-------------------------------|-0-------------------------------| 

e|---------------------------------|---------------------------------| 
H|---------------------------------|---------------------------------| 
G|---------------------------------|---------------------------------| 
D|-----------------5---------------|---------------------------------| 
A|-----5---6---7-------7---5---7---|-----7---5---7-------------------| 
E|-5-------------------------------|-0---------------7---5---3---5---| 


Bridge 

e|----------------------------------|------------------------------------| 
H|----------------------------------|------------------------------------| 
G|----------------------------------|------------------------------------| 
D|----7h9p7---------------------5-7-|---7h9p7---------------------5-7----| x4 
A|----------7-7-----7-----7---------|---------7-7-----7-----7------------| 
E|----------------------------------|------------------------------------| 


Pre-Chorus 

e|---------------------------------|---------------------------------| 
H|---------------------------------|---------------------------------| 
G|---------------------------------|---------------------------------| 
D|---------------------------------|---------------------------------| 
A|---------3-----------------------|-3-------------------------------| 
E|-5---------------5---0---3---5---|---------5-----------------------| 


Chorus 

e|---------------------------------|---------------------------------| 
H|---------------------------------|---------------------------------| 
G|---------------------------------|---------------------------------| 
D|-----------------5---------------|-----------------5---------------| 
A|-----5---6---7-------7---5---7---|-----5---6---7-------7---5---7---| 
E|-3-------------------------------|-0-------------------------------| 

e|---------------------------------|---------------------------------| 
H|---------------------------------|---------------------------------| 
G|---------------------------------|---------------------------------| 
D|-----------------5---------------|---------------------------------| 
A|-----5---6---7-------7---5---7---|-----7---5---7-------------------| 
E|-5-------------------------------|-0---------------7---5---3---5---| 

e|---------------------------------|---------------------------------| 
H|---------------------------------|---------------------------------| 
G|---------------------------------|---------------------------------| 
D|-----------------5---------------|-----------------5---------------| 
A|-----5---6---7-------7---5---7---|-----5---6---7-------7---5---7---| 
E|-3-------------------------------|-0-------------------------------| 

e|---------------------------------|---------------------------------| 
H|---------------------------------|---------------------------------| 
G|---------------------------------|---------------------------------| 
D|-----------------5---------------|---------------------------------| 
A|-----5---6---7-------7---5---7---|-----7---5---7-------------------| 
E|-5-------------------------------|-0---------------7---5---3---5---| 


Outro - Chorus 
(With Intro - Riff) 
e|---------------------------------|---------------------------------| 
H|---------------------------------|---------------------------------| 
G|---------------------------------|---------------------------------| 
D|---------------------------------|---------------------------------| 
A|----/7------/5-------7--/10--7---|----/7---5---7-------5-------7---| 
E|-0-------0-------0---------------|-0---------------7-------3-------| 

e|---------------------------------|---------------------------------| 
H|---------------------------------|---------------------------------| 
G|---------------------------------|---------------------------------| 
D|-----10------9-------7---5---4---|---------------------------------| 
A|-0-------0-------0---------------|----/7---5---7-------------------| 
E|---------------------------------|-0---------------7---5---3---5---| 

e|---------------------------------|---------------------------------| 
H|---------------------------------|---------------------------------| 
G|---------------------------------|---------------------------------| 
D|---------------------------------|---------------------------------| 
A|----/7------/5-------7--/10--7---|----/7---5---7-------5-------7---| 
E|-0-------0-------0---------------|-0---------------7-------3-------| 

e|---------------------------------|---------------------------------| 
H|---------------------------------|---------------------------------| 
G|---------------------------------|---------------------------------| 
D|-----10------9---7---6---5---4---|---------------------------------| 
A|-0-------0-----------------------|---------------------------------| 
E|---------------------------------|-0-------------------------------| 

e|---------------------------------|---------------------------------| 
H|---------------------------------|---------------------------------| 
G|---------------------------------|---------------------------------| 
D|---------------------------------|---------------------------------| 
A|----/7------/5-------7--/10--7---|----/7---5---7-------5-------7---| 
E|-0-------0-------0---------------|-0---------------7-------3-------| 

e|---------------------------------|---------------------------------| 
H|---------------------------------|---------------------------------| 
G|---------------------------------|---------------------------------| 
D|-----10------9-------7---5---4---|---------------------------------| 
A|-0-------0-------0---------------|----/7---5---7-------------------| 
E|---------------------------------|-0---------------7---5---3---5---| 

e|---------------------------------|---------------------------------| 
H|---------------------------------|---------------------------------| 
G|---------------------------------|---------------------------------| 
D|---------------------------------|---------------------------------| 
A|----/7------/5-------7--/10--7---|----/7---5---7-------5-------7---| 
E|-0-------0-------0---------------|-0---------------7-------3-------| 

e|---------------------------------|---------------------------------| 
H|---------------------------------|---------------------------------| 
G|---------------------------------|---------------------------------| 
D|-----10------9---7---6---5---4---|---------------------------------| 
A|-0-------0-----------------------|---------------------------------| 
E|---------------------------------|-0-------------------------------| 

*********************************** 
| /   Slide up 
| h   Hummer-on 
| p   Pull-off 
| x   Dead note 
*********************************** 
		  

See also:

tabs Refused - Dawkins Christ tabs Royal Republic - Full Steam Spacemachine tabs Opeth - Slither tabs Änglagård - Jordrök tabs Opeth - Wreath tabs Evergrey - Blinded (Intro)
e-chords

Other versions:

tabs Royal Republic - Weekend Man
auto scroll beats size up size down change color hide chords drawings
tab show chords e-chords YouTube Clip e-chords hide all tabs e-chords go to top tab

share