Opeth

Patterns In The Ivy Ii

Opeth

tabs Advanced advanced

by  RAFA_MUAY

save to print version add songbook text version e-mail correct tuner
chordsukulelecavacokeyboardtabbassdrumsharmonicaflute Guitar Pro
close

there isn't a video lesson for this song

chords

Patterns In The Ivy Ii

(Mikael Åkerfeldt)

	  		
 

Versos 
             Without you  I    cannot            confide in           anything... 
e|--------------0--------------8p0--------0----------------------0----------| 
B|--------6--------6----------------6--------6-------------6--------6-------| 
G|-----7-----7--------7-----7----------7--------7-------7-----7--------7----| 
D|--0--------------------8---------------------------6----------------------| 
A|------------------------------------------------------------------------0-| 
E|--------------------------------------------------------------------------| 

Virada 

|------------------------| 
|------------------------| 
|-----7-----6------------| 
|--7-----7-----7\5-------| 
|-------------------7----| 
|------------------------| 

Refrão 
                                                          One moonlit shadow on the wall... 
|--------------0------------------0-------------0------------------0------| 
|-----------0-----0------------0-------------0-----0------------0---------| 
|--------5-----------5------5-------------2-----------2------2-----------0| 
|-----7-----------------6--------------4-----------------3----------------| 
|--0-------------------------------------------------------------------3--| 
|-------------------------------------------------------------------------| 

Interlúdio 1 (pós refrão) 

|-----------------0------------------------|--------------0----------|---| 
|--------3-----3-----3---------3--------3--|--------3--------3-------|-2-| 
|-----0-----0-----------0------3--------3--|-----2-----2--------2----|-2-| 2x 
|------------------------------------------|-------------------------|-2-| 
|--1---------------------------------------|--0--------------------0-|-0-| 
|---------------------------3---------3----|-------------------------|---| 

Interlúdio 2 (pós interlúdio 1 na segunda parte) 
 

   Patterns... 
|-------------------------0-----------------| 
|---------------3---------------------3-----| 
|--------4---------4---------------0-----0--| 2x 
|-----4-----4---------4---------4-----------| 
|--2-------------------------4--------------| 
|-------------------------------------------| 
   AaAh                              in the 
|-------------------------0------------------| 
|---------------3--------------------3-------| 
|--------4---------4--------------0-----0----| 1x 
|-----5-----5---------5--------4-------------| 
|---------------------------0----------------| 
|--0-----------------------------------------| 
   Ivy 
|-------------------------0-----------------| 
|---------------3---------------------3-----| 
|--------4---------4---------------0-----0--| 1x 
|-----4-----4---------4---------4-----------| 
|--2-------------------------4--------------| 
|-------------------------------------------| 

Solo 
1ª parte 

|-------------------------------------------------------------------| 
|-----------2--3-----2--3------------------------2--3--0--5--3--6---| 
|--------4--------4--------4\2--4-------------4---------------------| 
|-----4----------------------------4----2--4------------------------| 
|--2----------------------------------------------------------------| 
|-------------------------------------------------------------------| 

|-------------------------------------------------------------------| 
|--10--7--5p3h5---3--2--0~----0--5--7--7h8p7--5--3---2~-------------| 
|-------------------------------------------------------------------| 
|-------------------------------------------------------------------| 
|-------------------------------------------------------------------| 
|-------------------------------------------------------------------| 

2ª parte 

|-----------------------------------------| 
|--7---5---3---2---0----------------------| 
|----------------------2------------------| 2x 
|--------------------------2/4---0h2---0--| 
|-----------------------------------------| 
|-----------------------------------------| 

3ª parte 

|--9---7---2---0----------------------------------------------------| 
|--7---5---3---2---3---2--------------------------------------------| 
|------------------4---2---4---2------------------------------------| 4x 
|--------------------------4---2---5--------------------------------| 
|----------------------------------5--------------------------------| 
|-------------------------------------------------------------------| 
		  

See also:

tabs Johnossi - Send More Money tabs Royal Republic - Baby tabs Royal Republic - Vicious tabs Sabaton - Resist And Bite tabs Opeth - Cusp Of Eternity tabs Opeth - The Lines In My Hand
e-chords

Other versions:

tabs Opeth - Patterns In The Ivy Ii
auto scroll beats size up size down change color hide chords drawings
tab show chords e-chords YouTube Clip e-chords hide all tabs e-chords go to top tab

share