Refused

Malfire Tab

Refused

Difficulty: nolevelnolevel

by tamamoreira

tuner correct add songbook print version text version save to e-mail
chordsukulelecavacokeyboardtabbassdrumsharmonicsflute Guitar Pro
close

there isn't a video lesson for this song

request
chords

Malfire

  		Intro and Verse 

E|---------------------------------------------------------------------------| 
B|---------------------------------------------------------------------------| 
G|4---4---4---4--------------------------------------------------------------| 
D|0p2-0p2-0p2-3h2h0p2-3p2--0b2h3p2--0h2h3h5----------------------------------| 
A|---------------------------------------------------------------------------| 
D|---------------------------------------------------------------------------| 

Bridge 

E|---------------------------------------------------------------------------| 
B|---------------------------------------------------------------------------| 
G|---------------------------------------------------------------------------| 
D|---------------------------------------------------------------------------| 
A|3-3-3-3-3-3-3-3-2-0-0-0-0-0-0-0-0-2-3-2-2-2-2-2-2-2-2-0-2-3-3-3-3-3-3-3-3-3| 
D|---------------------------------------------------------------------------| 

Bridge 

E|---------------------------------------------------------------------------| 
B|----------------------------------------17-17-17-17-17-17-17--17-----------| 
G|---------------------------------------------------------------------------| 
D|----------------10-10-10-10-10-10-10-10------------------------------------| 
A|3-3-3-3-3-3-3-3------------------------------------------------------------| 
D|---------------------------------------------------------------------------| 

Chorus x2 

E|---------------------------------------------------------------------------| 
B|---------------------------------------------------------------------------| 
G|---------------------------------------------------------------------------| 
D|---------------------------------------------------------------------------| 
A|0-2-2-2-0-2-2-2-0-2-2-2--3-2-0-2-2-3-2-2-0-2-3-2-2-0-2-3-5-----------------| 
D|0-2-2-2-0-2-2-2-0-2-2-2--3-2-0-2-2-3-2-2-0-2-3-2-2-0-2-3-5-----------------| 


Chorus x3 

E|-------------3-3--3--3--3-3--3---------------------------------------------| 
B|-------------3-3--3--3--3-3--3---------------------------------------------| 
G|5--5-5--5--5-5-5--5--5--5-5--5-3-3--3--------------------------------------| 
D|5--5-5--5--5-5-5--5--5--5-5--5-3-3--3--------------------------------------| 
A|3--3-3--3--3-------------------1-1--1--------------------------------------| 
D|---------------------------------------------------------------------------| 



************************************ 

| h  Hammer-on 
| p  Pull-off 
| b  Bend 

************************************ 
	  

Search Paypal
auto scroll beats size up size down change color hide chords drawings
tab show chords e-chords YouTube Clip e-chords hide all tabs e-chords go to top tab

share with facebook