Anna Ternheim

China Girl

Anna Ternheim

tabs

by  ROBEPOIEL

save to print version add songbook text version e-mail correct tuner
chordsukulelecavacokeyboardtabbassdrumsharmonicaflute Guitar Pro
close

there isn't a video lesson for this song

chords

China Girl

	  		


INTRO & verse 1: 

" I could escape this feeling with, China girl " 
" I feel a wreck without my, little China girl 

e|---------------------|---------------------|---------------------|---------------------| 
B|---------------------|---------------------|---------------------|---------------------| 
G|-----2----0------0---|-----2----0------0---|-----5----0------0---|-----5----0------0---| 
D|---0--------0--------|---0--------0--------|---0--------0--------|---0--------0--------| 
A|---------------------|---------------------|---------------------|---------------------| 
E|-3-----3------3------|-3-----3------3/-----|-6-----6------6------|-6-----6------6\-----| 


verse 2: 

" I hear her heart beating, loud as thunder "     

e|---------------------|---------------------|---------------------|---------------------| 
B|-----0---------------|-----0---------------|-----0---------------|-----0---------------| 
G|----------0------0---|----------0------0---|----------0------0---|----------0------0---| 
D|---2--------2--------|---2--------2--------|---0--------0--------|---0--------0--------| 
A|---------------------|---------------------|---------------------|---------------------| 
E|-0-----0------0------|-0-----0------0------|-3-----3------3------|-3-----3------3------| 

" Saw their stars crashing " 
e|---------------------|---------------------|---------------------|---------------------| 
B|-----4---------------|-----4---------------|-----3---------------|-----3---------------| 
G|----------0------0---|----------0------0---|----------0------0---|----------0------0---| 
D|---5--------5--------|---5--------5--------|---4--------4--------|---4--------4--------| 
A|---------------------|---------------------|---------------------|---------------------| 
E|-6-----6------6------|-6-----6------6------|-5-----5------5------|-5-----5------5------| 


verse 1 REPRISE: 

" I?m a mess without my, little China girl " 
" Wake up in the morning where?s my, little China girl? " 

e|---------------------|---------------------|---------------------|---------------------| 
B|---------------------|---------------------|---------------------|---------------------| 
G|-----2----0------0---|-----2----0------0---|-----5----0------0---|-----5----0------0---| 
D|---0--------0--------|---0--------0--------|---0--------0--------|---0--------0--------|   (X2) 
A|---------------------|---------------------|---------------------|---------------------| 
E|-3-----3------3------|-3-----3------3/-----|-6-----6------6------|-6-----6------6\-----| 


verse 2 REPRISE: 

" I hear her heart beating, loud as thunder "     

e|---------------------|---------------------|---------------------|---------------------| 
B|-----0---------------|-----0---------------|-----0---------------|-----0---------------| 
G|----------0------0---|----------0------0---|----------0------0---|----------0------0---| 
D|---2--------2--------|---2--------2--------|---0--------0--------|---0--------0--------| 
A|---------------------|---------------------|---------------------|---------------------| 
E|-0-----0------0------|-0-----0------0------|-3-----3------3------|-3-----3------3------| 

" Saw their stars crashing down" 
e|---------------------|---------------------|---------------------|---------------------| 
B|-----4---------------|-----4---------------|-----3---------------|-----3---------------| 
G|----------0------0---|----------0------0---|----------0------0---|----------0------0---| 
D|---5--------5--------|---5--------5--------|---4--------4--------|---4--------4--------| 
A|---------------------|---------------------|---------------------|---------------------| 
E|-6-----6------6------|-6-----6------6------|-5-----5------5------|-5-----5------5------| 


verse 3: 

" I feel tragic like I'm, Marlon Brando "     

e|---------------------|---------------------|---------------------|---------------------| 
B|-----0---------------|-----0---------------|-----1---------------|-----1---------------| 
G|----------0------0---|----------0------0---|----------0------0---|----------0------0---| 
D|---0--------0--------|---0--------0--------|---2--------2--------|---2--------2--------| 
A|---------------------|---------------------|---------------------|---------------------| 
E|-3-----3------3------|-3-----3------3------|-3-----3------3------|-3-----3------3------| 

" When I look at my China girl " 

e|---------------------|---------------------|---------------------|---------------------| 
B|-----0---------------|-----0---------------|-----3---------------|-----3---------------| 
G|----------0------0---|----------0------0---|----------0------0---|----------0------0---| 
D|---2--------2--------|---2--------2--------|---4--------4--------|---4--------4--------| 
A|---------------------|---------------------|---------------------|---------------------| 
E|-0-----0------0------|-0-----0------0------|-5-----5------5------|-5-----5------5------| 

" I could pretend that nothing, really meant too much "     

e|---------------------|---------------------|---------------------|---------------------| 
B|-----0---------------|-----0---------------|-----1---------------|-----1---------------| 
G|----------0------0---|----------0------0---|----------0------0---|----------0------0---| 
D|---0--------0--------|---0--------0--------|---2--------2--------|---2--------2--------| 
A|---------------------|---------------------|---------------------|---------------------| 
E|-3-----3------3------|-3-----3------3------|-3-----3------3------|-3-----3------3------| 

" When I look at my China girl " 

e|---------------------|---------------------|-----0---------------|-----0---------------| 
B|-----0---------------|-----0---------------|----------3------3---|----------3------3---| 
G|----------0------0---|----------0------0---|---2--------2--------|---2--------2--------| 
D|---2--------2--------|---2--------2--------|-0-----0------0------|-0-----0------0------| 
A|---------------------|---------------------|---------------------|---------------------| 
E|-0-----0------0------|-0-----0------0------|---------------------|---------------------| 



verse 4: 

" I stumble into town, just like a sacred cow "     

e|---------------------|---------------------|---------------------|---------------------| 
B|-----1---------------|-----1---------------|-----1---------------|-----1---------------| 
G|----------2------2---|----------2------2---|----------2------2---|----------2------2---| 
D|---3--------3--------|---3--------3--------|---2--------2--------|---2--------2--------| 
A|-3-----3------3------|-3-----3------3------|-0-----0------0------|-0-----0------0------| 
E|---------------------|---------------------|---------------------|---------------------| 

" Visions of swastikas in my head, Plans for everyone " 

e|---------------------|---------------------|---------------------|---------------------| 
B|-----1---------------|-----1---------------|-----0---------------|-----0---------------| 
G|----------0------0---|----------0------0---|----------0------0---|----------0------0---| 
D|---2--------2--------|---2--------2--------|---2--------2--------|---2--------2--------| 
A|-3-----3------3------|-3-----3------3------|---------------------|---------------------| 
E|---------------------|---------------------|-0-----0------0------|-0-----0------0------| 

" It?s in the white of my, eyes "     

e|---------------------|---------------------|---------------------|---------------------| 
B|-----1---------------|-----1---------------|-----1---------------|-----1---------------| 
G|----------2------2---|----------2------2---|----------0------0---|----------0------0---| 
D|---3--------3--------|---3--------3--------|---2--------2--------|---2--------2--------| 
A|-3-----3------3------|-3-----3------3------|-3-----3------3------|-3-----3------3------| 
E|---------------------|---------------------|---------------------|---------------------| 



VERSE 5: 

" And when I get excited, my little China girl says "     

e|---------------------|---------------------|---------------------|---------------------| 
B|-----0---------------|-----0---------------|-----1---------------|-----1---------------| 
G|----------0------0---|----------0------0---|----------2------2---|----------2------2---| 
D|---0--------0--------|---0--------0--------|---3--------3--------|---3--------3--------| 
A|---------------------|---------------------|-3-----3------3------|-3-----3------3------| 
E|-3-----3------3------|-3-----3------3------|---------------------|---------------------| 

" Baby, just you shut your, mouth " 

e|---------------------|---------------------|-----0---------------|-----0---------------| 
B|-----0---------------|-----0---------------|----------3------3---|----------3------3---| 
G|----------0------0---|----------0------0---|---2--------2--------|---2--------2--------| 
D|---2--------2--------|---2--------2--------|-0-----0------0------|-0-----0------0------| 
A|---------------------|---------------------|---------------------|---------------------| 
E|-0-----0------0------|-0-----0------0------|---------------------|---------------------| 



VERSE 6: 

" She says, sh-sh-shhh " 

e|---------------------|---------------------|---------------------|---------------------| 
B|-----0---------------|-----0---------------|-----3---------------|-----3---------------| 
G|----------0------0---|----------0------0---|----------0------0---|----------0------0---| 
D|---2--------2--------|---2--------2--------|---4--------4--------|---4--------4--------| 
A|---------------------|---------------------|-5-----5------5------|-5-----5------5------| 
E|-0-----0------0------|-0-----0------0------|---------------------|---------------------| 

" Shhhh "     

e|---------------------|---------------------|---------------------|---------------------| 
B|-----1---------------|-----1---------------|-----3---------------|-----3---------------| 
G|----------2------2---|----------2------2---|----------4------4---|----------4------4---| 
D|---2--------2--------|---2--------2--------|---4--------4--------|---4--------4--------| 
A|-0-----0------0------|-0-----0------0------|-2-----2------2------|-2-----2------2------| 
E|---------------------|---------------------|---------------------|---------------------| 


VERSE 6 REPRISE: 

" ... " 

e|---------------------|---------------------|---------------------|---------------------| 
B|-----0---------------|-----0---------------|-----3---------------|-----3---------------| 
G|----------0------0---|----------0------0---|----------0------0---|----------0------0---| 
D|---2--------2--------|---2--------2--------|---4--------4--------|---4--------4--------| 
A|---------------------|---------------------|-5-----5------5------|-5-----5------5------| 
E|-0-----0------0------|-0-----0------0------|---------------------|---------------------| 

" ... "     

e|---------------------|---------------------|---------------------|---------------------| 
B|-----1---------------|-----1---------------|-----3---------------|-----3---------------| 
G|----------2------2---|----------2------2---|----------4------4---|----------4------0---| 
D|---2--------2--------|---2--------2--------|---4--------4--------|---4--------4--------| 
A|-0-----0------0------|-0-----0------0------|-2-----2------2------|-2-----2------2------| 
E|---------------------|---------------------|---------------------|---------------------| 

                                    
INTRO = OUTRO... duh: 

e|---------------------|---------------------|---------------------|---------------------| 
B|---------------------|---------------------|---------------------|---------------------| 
G|-----2----0------0---|-----2----0------0---|-----5----0------0---|-----5----0------0---| 
D|---0--------0--------|---0--------0--------|---0--------0--------|---0--------0--------| 
A|---------------------|---------------------|---------------------|---------------------| 
E|-3-----3------3------|-3-----3------3/-----|-6-----6------6------|-6-----6------6\-----| 

Do what you want at the ending ^^ 

Have fun! 


Jore V. 

************************************ 

| /   slide up 
| \   slide down 
| h   hammer-on 
| p   pull-off 
| ~   vibrato 
| +   harmonic 
| x   Mute note 
| b   Bend 
| pb  Pre-bend 
| br  Bend release 
| pbr Pre-bend release 
| brb Bend release bend 

************************************ 
		  

See also:

tabs Refused - Dawkins Christ tabs Nomy - Spank My Ass tabs Opeth - Sorceress tabs Anna Ternheim - To Be Gone tabs Opeth - The Lines In My Hand tabs Hakan Hellstrom - Branno Serenad
e-chords

Other versions:

tabs David Bowie - China girl tabs The White Stripes - China Girl tabs Anna Ternheim - China Girl
auto scroll beats size up size down change color hide chords drawings
tab show chords e-chords YouTube Clip e-chords hide all tabs e-chords go to top tab

share