Opeth

The Devil's Orchard

Opeth

tabs Advanced advanced

by  JOAOEWERTON

save to print version add songbook text version e-mail correct tuner
chordsukulelecavacokeyboardtabbassdrumsharmonicaflute Guitar Pro
close

there isn't a video lesson for this song

chords

The Devil's Orchard

	  		
INTRO 

e|-------------------------| 
B|-------------------------| 
G|-------------------------| 
D|-------------7---7h9-----| 
A|-5h7---5h7h8---8-----8---| 
E|-----6-----------------0-| 


PROGGY GUITAR PART (0:30) 

e|------------------------------------------------------------------| 
B|------------------------------------------------------------------| 
G|----------------------------------------------9-10--6-------------| 
D|---------------6---6h8p6--6h8-8h9p8p6---6-8h9---------9-6---------| 
A|-----7---6h7-7---7------7-------------7-------------------8-5-----| 
E|-0h7---7------------------------------------------------------7-4-| 
                                                            * * * * 

PALM MUTE PART (0:58) 

e|-0-|-------------------------------------------------| 
B|-0-|-------------------------------------------------| 
G|-5-|-----------------------------13-------10---------| 
D|-2-|-----------------------12-------12-------12------| 
A|-0-|---------------11---------11-------11-------11---| 
E|---|-------13-10-0----10-0-------------------------0-| 
             ** ** * ** ** *                         o 

GOD IS DEAD (1:20) 

e|----------------------------------| 
B|----------------------------------| 
G|----------------------------------| 
D|----------------------------------| 
A|-7--6-\1--2------------8--7-\1--2-| 
E|----------0---------------------0-| 
            o                     o 

GHOSTLY ORGAN PART (3:20) 

e|--------------| 
B|-8p7-8p7---7--| 
G|---------9----| 
D|--------------| 
A|--------------| 
E|--------------| 


EVIL ORGAN BRIDGE (3:45) 

e|----------------------------------------------------------------------------------| 
B|----------------------------------------------------------------------------------| 
G|------------------------------------------------------------1p0-4p3---------------| 
D|---------------------------7--6------5-5----------------------------2-2-----------| 
A|---------------------------7--6------5-5--------------------------------4-4--4--x-| 
E|-11----9----------------8--5--4------0h3------------1p0-6p0-------------3-3--3--x-| 


PROGGY ORGAN SOLO (3:55) 

e|--------------------------------------------------------------------------------| 
B|--------------------------------------------------------------------------------| 
G|-6-5-4-3---------------------3------------2-------------------------------------| 
D|-----------6-5---------------3------------2-------------------------------------| 
A|---------------5-4---5--4----1------------0-----------\5----4----5----7----8-\2-| 
E|-------------------3----------------------------------------------------------0-| 


OUTRO PART I (5:10)
 
e|---------0-----| 
B|-0---------0---| 
G|-3-----------3-| 
D|-4-------------| 
A|-4-------------| 
E|-2-------------| 
   o       o o o 

OUTRO PART II (5:30)
 
e|-0---------------|---------------------| 
B|--0--------------|---------------------| 
G|---0-----0-------|------0------------0-| 
D|----2----2-------|------2------------2-| 
A|-----------------|---------------------| 
E|-----------------|-2------------0------| 
   oooo    o         o    o       o    o  
		  

See also:

tabs Refused - Dawkins Christ tabs Royal Republic - Full Steam Spacemachine tabs Opeth - Slither tabs Änglagård - Jordrök tabs Opeth - Wreath tabs Evergrey - Blinded (Intro)
e-chords

Other versions:

tabs Opeth - The Devil's Orchard
auto scroll beats size up size down change color hide chords drawings
tab show chords e-chords YouTube Clip e-chords hide all tabs e-chords go to top tab

share