Opeth

Wreath

Opeth

tabs

by  UBIRBOMFIM

save to print version add songbook text version e-mail correct tuner
chordsukulelecavacokeyboardtabbassdrumsharmonicaflute Guitar Pro
close

there isn't a video lesson for this song

chords

Wreath

	  		
  Riff A (both guitars) 
e|---------------------------------------------------------------------------| 
B|---------------------------------------------------------------------------| 
G|---------------------------------------------------------------------------| 
D|/7--7-7-6-3/7--7-7-6-3/8--8-7-x-x------------------------------------------| 
A|---------------------------------/6--6-5-x-x-------------------------------| 
E|/5--5-5-4-1/5--5-5-4-1/6--6-5-x-x/8--8-7-x-x-------------------------------| 

                         pm---    -    ------- 
e|---------------------------------------------------------------------------| 
B|---------------------------------------------------------------------------| 
G|---------------------------------------------------------------------------| 
D|/7--7-7-6-3/7--7-7-6-3-------2----2----------------------------------------| 
A|-----------------------------1----1----------------------------------------| 
E|/5--5-5-4-1/5--5-5-4-1-0-0-0-0--0-0--0-3-5-6-------------------------------| 

  Riff B (gtr. 1) 
e|---------------------------------------------------------------------------| 
B|----------------------/8--8-8-8-8------------------------------------------| 
G|/9--9-9-9-9-----------/9--9-9-9-9------------------------------------------| 
D|------------2--2-2-2-2------------2--2-2-2-2-------------------------------| 
A|/7--7-7-7-7-2--2-2-2-2/7--7-7-7-7-2--2-2-2-2-------------------------------| 
E|------------0--0-0-0-0------------0--0-0-0-0-------------------------------| 

e|---------------------------------------------------------------------------| 
B|---------------------------------------------------------------------------| 
G|/8--8-8-8-8------------------------/10-10-10-x-----------------------------| 
D|------------2--2-2-2-2-10\x-8\x-4------------------------------------------| 
A|/6--6-6-6-6-2--2-2-2-2--------------/8--8--8-x-----------------------------| 
E|------------0--0-0-0-0--8\x-5\x-2------------------------------------------| 
   
  (gtr. 2) 
e|---------------------------------------------------------------------------| 
B|-0-0-0-0-0-0-0-0-0-0-0-0-0-0-0-0-0-0-0--0-0-0-0----------------------------| 
G|-2/4-4-4-4-4-5\4-4-4-4-4-2/4-4-4-4-4-4--4-4-4-4----------------------------| 
D|---------------------------------------------------------------------------| 
A|---------------------------------------------------------------------------| 
E|---------------------------------------------------------------------------| 

e|---------------------------------------------------------------------------| 
B|-0--0-0-0-0-0--0-0-0-0-------------ph--------------------------------------| 
G|-3--3-3-3-3-0--0-3-3-3-/4~~--------4b(5)br4--------------------------------| 
D|----------------------------5--4-3-----------------------------------------| 
A|---------------------------------------------------------------------------| 
E|---------------------------------------------------------------------------| 
   
  Riff A again with this thing at the end 
   pm-----   - 
e|---------------------------------------------------------------------------| 
B|---------------------------------------------------------------------------| 
G|---------------------------------------------------------------------------| 
D|---------------------------------------------------------------------------| 
A|---------4---4-5/7-5-7b(8)br7-5\4------------------------------------------| 
E|-0-3-5-6---6----------------------6-3h5~~----------------------------------| 

  Riff C (guitar 1) 
e|-0--0-0-0-0-0--0-0-0-0-0--0-0-0-0-0--0-0-0-0-------------------------------| 
B|-0--0-0-0-0-0--0-0-0-0-0--0-0-0-0-0--0-0-0-0-------------------------------| 
G|-2--2-2-2-2-2--2-2-2-2-2--2-2-2-2-2--2-2-2-2-------------------------------| 
D|-2--2-2-2-2-2--2-2-2-2-2--2-2-2-2-2--2-2-2-2-------------------------------| 
A|-0--0-0-0-0-0--0-0-0-0-0--0-0-0-0-0--0-0-0-0-------------------------------| 
E|---------------------------------------------------------------------------| 

e|-3--3-3-3-3-3--3-3-3-3-3--3-3-3-3-3--3-3-3-3-------------------------------| 
B|-3--3-3-3-3-3--3-3-3-3-3--3-3-3-3-3--3-3-3-3-------------------------------| 
G|-5--5-5-5-5-5--5-5-5-5-5--5-5-5-5-5--5-5-5-5-------------------------------| 
D|-5--5-5-5-5-5--5-5-5-5-5--5-5-5-5-5--5-5-5-5-------------------------------| 
A|-3--3-3-3-3-3--3-3-3-3-3--3-3-3-3-3--3-3-3-3-------------------------------| 
E|---------------------------------------------------------------------------| 

e|---------------------------------------------------------------------------| 
B|---------------------------------------------------------------------------| 
G|-4--4-4-4-4-4--4-4-4-4-4--4-4-4-4-4--4-4-4-4-------------------------------| 
D|-4--4-4-4-4-4--4-4-4-4-4--4-4-4-4-4--4-4-4-4-------------------------------| 
A|-4--4-4-4-4-4--4-4-4-4-2--2-2-2-2-2--2-2-2-2-------------------------------| 
E|-3--3-3-3-3-3--3-3-3-3-3--3-3-3-3-3--3-3-3-3-------------------------------| 

e|---------------------------------------------------------------------------| 
B|---------------------------------------------------------------------------| 
G|----------------------3--3-3-3-3-3--3-3-3-3--------------------------------| 
D|-2--2-2-2-2-2--2-2-2--4--4-4-4-4-4--4-4-4-4--------------------------------| 
A|-4--4-4-4-4-4--4-4-4--4--4-4-4-4-4--4-4-4-4--------------------------------| 
E|-0--0-0-0-0-3--3-3-0--2--2-2-2-2-2--2-2-2-2--------------------------------| 

  (guitar 2)  rhythm's the same as gtr. 1, no need to tab it 
e|---------------------------------------------------------------------------| 
B|---------------------------------------------------------------------------| 
G|-17-16-13-14--19--20-17--18--19-16--16--18-15------------------------------| 
D|---------------------------------------------------------------------------| 
A|-15-14-11-12--17--18-15--16--17-14--14--16-13------------------------------| 
E|---------------------------------------------------------------------------| 
   
  Riff D (gtr. 1) 
e|---------------------------------------------------------------------------| 
B|---------------------------------------------------------------------------| 
G|-2--2-2-2-2-2--2-2-2-2-2--2-2-2-2-2--2-2-2-2-------------------------------| 
D|-2--2-2-2-2-2--2-2-2-2-2--2-2-2-2-2--2-2-2-2-------------------------------| 
A|-0--0-0-0-0-0--0-0-0-0-0--0-0-0-0-0--0-0-0-0-------------------------------| 
E|---------------------------------------------------------------------------| 

e|---------------------------------------------------------------------------| 
B|---------------------------------------------------------------------------| 
G|-1--1-1-1-1-1--1-1-1-1-1--1-1-1-1-1--1-1-1-1-------------------------------| 
D|-3--3-3-3-3-3--3-3-3-3-3--3-3-3-3-3--3-3-3-3-------------------------------| 
A|-3--3-3-3-3-3--3-3-3-3-3--3-3-3-3-3--3-3-3-3-------------------------------| 
E|-1--1-1-1-1-1--1-1-1-1-1--1-1-1-1-1--1-1-1-1-------------------------------| 

e|---------------------------------------------------------------------------| 
B|---------------------------------------------------------------------------| 
G|-2--2-2-2-2-2--2-2-2-2-2--2-2-2-2-2--2-2-2-2-------------------------------| 
D|-2--2-2-2-2-2--2-2-2-2-2--2-2-2-2-2--2-2-2-2-------------------------------| 
A|-0--0-0-0-0-0--0-0-0-0-0--0-0-0-0-0--0-0-0-0-------------------------------| 
E|---------------------------------------------------------------------------| 

e|---------------------------------------------------------------------------| 
B|---------------------------------------------------------------------------| 
G|---------------------------------------------------------------------------| 
D|-6--6-6-6-6-6--6-6-6-6-6--6-6-6-6-6--6-6-6-6-------------------------------| 
A|---------------------------------------------------------------------------| 
E|-4--4-4-4-4-4--4-4-4-4-4--4-4-4-4-4--4-4-4-4-------------------------------| 

  (gtr. 2)  again, no need to tab the rhythm 
e|---------------------------------------------------------------------------| 
B|---------------------------------------------------------------------------| 
G|-7----------9---------10------------12-------------------------------------| 
D|---------------------------------------------------------------------------| 
A|-5----------7----------8------------10-------------------------------------| 
E|---------------------------------------------------------------------------| 

e|---------------------------------------------------------------------------| 
B|---------------------------------------------------------------------------| 
G|-13------------------------------------------------------------------------| 
D|---------------------------------------------------------------------------| 
A|-11------------------------------------------------------------------------| 
E|---------------------------------------------------------------------------| 

e|---------------------------------------------------------------------------| 
B|---------------------------------------------------------------------------| 
G|-7----------9---------10-------------7-------------------------------------| 
D|---------------------------------------------------------------------------| 
A|-5----------7----------8-------------5-------------------------------------| 
E|---------------------------------------------------------------------------| 

e|---------------------------------------------------------------------------| 
B|---------------------------------------------------------------------------| 
G|-5-------------------------------------------------------------------------| 
D|---------------------------------------------------------------------------| 
A|-3-------------------------------------------------------------------------| 
E|---------------------------------------------------------------------------| 

  repeat riff C and then play riff D with solo: 
   pm----- 
e|-----------------------------------8--------8-8----------------------------| 
B|---------6----6-8b(9)br8p6-8-6--/9---9--9-9-----9~~------------------------| 
G|-------7----7--------------------------------------------------------------| 
D|-----7---------------------------------------------------------------------| 
A|-5-8-----------------------------------------------------------------------| 
E|---------------------------------------------------------------------------| 

e|-11-8-10p8---8-------------------------------------------------------------| 
B|x----------9---9p8\6h8p8---6---6---6---6---9b(10)~~~-9b(10)br9-8-9~~-------| 
G|-------------------------7---7---7---7---7---------------------------------| 
D|---------------------------------------------------------------------------| 
A|---------------------------------------------------------------------------| 
E|---------------------------------------------------------------------------| 

e|---------------------------------------------------------------------------| 
B|---------------------------------------------------------------------------| 
G|---------------------------------------------------------------------------| 
D|-7--7-7-7-7-5--5-5-5-5-7--7-7-7-7-8--8-8-8-8-------------------------------| 
A|---------------------------------------------------------------------------| 
E|---------------------------------------------------------------------------| 
 | guitar 3                                                                  | 
e|---------------------------------------------------------------------------| 
B|---------------------------------------------------------------------------| 
G|-14--14-14-14-14-12--12-12-12-12-10--10-10-10-10---------------------------| 
D|-------------------------------------------------12--12-12-12-12-----------| 
A|-12--12-12-12-12-10--10-10-10-10--8---8--8--8--8---------------------------| 
E|-------------------------------------------------10--10-10-10-10-----------| 
                                            
e|---------------------------------------------------------------------------| 
B|----------------------------------------(T)--------------------------------| 
G|---------------------------12b(13)br12--h17p12p10--------------------------| 
D|-10--10-10-10-10-/13-12-10-------------------------------------------------| 
A|---------------------------------------------------------------------------| 
E|---------------------------------------------------------------------------| 
 |    guitar 3                                                               | 
e|---------------------------------------------------------------------------| 
B|---------------------------------------------------------------------------| 
G|---------------------------------------------------------------------------| 
D|-10--10-10-10-10-----------------------------------------------------------| 
A|-----------------etc.------------------------------------------------------| 
E|--8---8--8--8--8-----------------------------------------------------------| 

e|-17-13----13---------------------------------------------------------------| 
B|-------15----15----15----------------------------------15------------------| 
G|----------------14----14-13h14p13----13----------13h14---------------------| 
D|----------------------------------15----15-14-12---------------------------| 
A|---------------------------------------------------------------------------| 
E|---------------------------------------------------------------------------| 

e|-------------------------------------------13----13-15b(17)~~~~------------| 
B|----15-15-------15----15-15-------15----15----15---------------------------| 
G|-14-------13h14----14-------13h14----14------------------------------------| 
D|---------------------------------------------------------------------------| 
A|---------------------------------------------------------------------------| 
E|---------------------------------------------------------------------------| 

  little transition riff (gtr. 1) 
e|---------------------------------------------------------------------------| 
B|---------------------------------------------------------------------------| 
G|---------------------------------------------------------------------------| 
D|-9--9-9-9-9-7--7-7-7-7-7--7-7-7-7-7--7-7-7-7--continue strumming for-------| 
A|------------------------------------------------------duration-------------| 
E|-7--7-7-7-7-5--5-5-5-5-5--5-5-5-5-5--5-5-5-5-------------------------------| 
 |                                                                           | 
 | (gtr. 2)                                                                  | 
e|---------------------------------------------------------------------------| 
B|---------------------------------------------------------------------------| 
G|------------6--6-6-6-6-7--7-7-7-7-9--9-9-9-9-10-10-10-10-10----------------| 
D|-9--9-9-9-9----------------------------------------------------etc.--------| 
A|------------4--4-4-4-4-5--5-5-5-5-7--7-7-7-7--8--8--8--8--8----------------| 
E|-7--7-7-7-7----------------------------------------------------------------| 

  Riff E (gtr. 1) 
e|---------------------------------------------------------------------------| 
B|----------------------------------3--3-3-3-3-------------------------------| 
G|-9--9-9-9-9-9--9-9-9-9-9--9-9-9-9-3--3-3-3-3-------------------------------| 
D|----------------------------------5--5-5-5-5-------------------------------| 
A|-7--7-7-7-7-7--7-7-7-7-7--7-7-7-7-7--7-7-7-7-------------------------------| 
E|-0--0-0-0-0-0--0-0-0-0-0--0-0-0-0-0--0-0-0-0-------------------------------| 
 |                                                                           | 
 | (gtr. 2)  not tabbing rhythm                                              | 
e|---------------------------------------------------------------------------| 
B|---------------------------------------------------------------------------| 
G|-9----12-14-16------19-16---12--14----15-----------------------------------| 
D|---------------------------------------------------------------------------| 
A|-7----10-12-14------17-14---10--12----13-----------------------------------| 
E|---------------------------------------------------------------------------| 

  Riff F (both gtr.) 
e|---------------------------------------------------------------------------| 
B|---------------------------------------------------------------------------| 
G|-----------0-------------0-------------------------------------------------| 
D|-4--4--4-4-----4--4--4-4----0--0--------------/2~~-1h2p1---1-----1---------| 
A|-4--4--4-------4--4--4------1--1--0h1p0---0h1------------3---2-3---0-------| 
E|-2--2--0-------2--2--0------3--3--------3----------------------------------| 

  Riff G (gtr. 1) 
e|------------3------------3-------------------------------------------------| 
B|------------3------------3-------------------------------------------------| 
G|-3--3-3-3-3-3--3-3-3-3-3-3--3-3--------------------------------------------| 
D|-5--5-5-5-5-5--5-5-5-5-5-5--5-5--------------------------------------------| 
A|-5--5-5-5-5-5--5-5-5-5-5-5--5-5--------------------------------------------| 
E|-3--3-3-3-3-3--3-3-3-3-3-3--3-3-3-5-6~~------------------------------------| 
 |   guitar 2                                                                | 
e|---------------------------------------------------------------------------| 
B|--------3------------------------------------------------------------------| 
G|-/4-3---0------------------------------------------------------------------| 
D|------5---/6-5-------------------------------------------------------------| 
A|----------------1-3-4~~----------------------------------------------------| 
E|---------------------------------------------------------------------------| 
  
  quiet interlude thing 
e|---3-----------------------------------------------------------------------| 
B|-----3---------------------------------------------------------------------| 
G|-------6-------------------------------------------------------------------| 
D|---------3h5---------------------------------------------------------------| 
A|-------------4---4---------------------------------------------------------| 
E|-3-------------------------------------------------------------------------| 
   
  solo section 2 rhythm part (very simple, some variations not worth tabbing) 
e|---------------------------------------------------------------------------| 
B|---------------------------------------------------------------------------| 
G|---------------------------------------------------------------------------| 
D|---------------------------------------------------------------------------| 
A|---------------------------------------------------------------------------| 
E|-0-2-2-2-0-2-2---etc...---then--0-3-3-3-0-3-3------------------------------| 
   
  solo: (the beginning part is an approximation bc it's hard to make out) 
e|-2-------------------------------------------------------------------------| 
B|-2---------------------------tremolo---------------------------------------| 
G|-4b(6)~~-2---------2-4-4b(1/4.........1/2)~~-------------------------------| 
D|-----------4~~---4---------------------------------------------------------| 
A|---------------------------------------------------------------------------| 
E|---------------------------------------------------------------------------| 

e|---------------------------------------------------------------------------| 
B|---------------------------------------------------------------------------| 
G|-4~~h5p4---4h5p4---4h5p4---4h5p4---4h5p4---4----4--------------------------| 
D|---------7-------7-------7-------7-------7---7---4--4--7-------------------| 
A|--------------------------------------------------------7-7/9~~------------| 
E|---------------------------------------------------------------------------| 

e|---------------------------------------------------------------------------| 
B|---------------------------------------------------------------------------| 
G|---------------------------------------------------------------------------| 
D|---------------------------------------------------------------------------| 
A|-7h9p7-\4------------------------------------------------------------------| 
E|------------0--h2~~--------------------------------------------------------| 

e|---------------------------------------------------------------------------| 
B|-------.--.----------------------------------------------------------------| 
G|-/11~~-9-11-9h11p9----ph---------------------------------------------------| 
D|-------------------10-10/11~~-9/11~~--10-11--------------------------------| 
A|--------------------------------------------9b(10)br9~~--------------------| 
E|---------------------------------------------------------------------------| 

e|---------------------------------------------------------------------------| 
B|-----------------------10-10h11p10----10-----------------------------------| 
G|--------------------12-------------12----12-10-12b(14)br12-11~~------------| 
D|-----------------12--------------------------------------------------------| 
A|-/10~~--10-12-13-----------------------------------------------------------| 
E|---------------------------------------------------------------------------| 

e|---------------------------------------------------------------------------| 
B|--.--.------------------------------11----11h12p11----11-------------------| 
G|-11-12-11h12p11----11-11~~----11h12----12----------12----12-11-------------| 
D|----------------14---------------------------------------------------------| 
A|---------------------------------------------------------------------------| 
E|---------------------------------------------------------------------------| 

e|---------------------------------------------------------------------------| 
B|------ph-------------------------------------------------------------------| 
G|-9-11-11b(12)br11p9----9---------------------------------------------------| 
D|--------------------11---11-9-8h9p8-ph-------------------------------------| 
A|------------------------------------9b(10)-9~~-----------------------------| 
E|---------------------------------------------------------------------------| 
   pm----------- 
e|---------------------------------------------------------------------------| 
B|---------------9-9h10p9----9-10-12-12b(14)~~~~-----------------------------| 
G|------------11----------11-------------------------------------------------| 
D|---------11----------------------------------------------------------------| 
A|-9-11-12-------------------------------------------------------------------| 
E|---------------------------------------------------------------------------| 
   
  Riff G (gtr. 1) 
e|---------------------------------------------------------------------------| 
B|-0--0-0-0-0-0--0-0-0-0-0--0-0-0-0-0--0-0-0-0-------------------------------| 
G|-0--0-0-0-0-0--0-0-0-0-0--0-0-0-0-0--0-0-0-0-------------------------------| 
D|-2--2-2-2-2-2--2-2-2-2-2--2-2-2-2-2--2-2-2-2-------------------------------| 
A|-4--4-4-4-4-4--4-4-4-4-3--3-3-3-3-3--3-3-3-3-------------------------------| 
E|---------------------------------------------------------------------------| 
           pm--                    --- 
e|---------------------------------------------------------------------------| 
B|---------------------------------------------------------------------------| 
G|---------------------------------------------------------------------------| 
D|---------------------------------------------------------------------------| 
A|-------------7-7-7-7-----------------7-7-7-7-------------------------------| 
E|-2p0-0-0-0-0---------0-0-3p0-0-0-0-0---------------------------------------| 
   
  (gtr. 2) 
e|---------------------------------------------------------------------------| 
B|-5~~---------5-7-7b(8)br7b(8)br7-------------------------------------------| 
G|------4~~--4---------------------5~~---------------------------------------| 
D|---------------------------------------------------------------------------| 
A|---------------------------------------------------------------------------| 
E|---------------------------------------------------------------------------| 

e|---------------------------------------------------------------------------| 
B|---------------------------------------------------------------------------| 
G|--------------------7-6h7p6------------------------------------------------| 
D|-----8--9--6----8-9---------9----------------------------------------------| 
A|-7-------------------------------------------------------------------------| 
E|-0-------------------------------------------------------------------------| 

  Riff H 
e|---------------------------------------------------------------------------| 
B|---------------------------------------------------------------------------| 
G|---------------------------------------------------------------------------| 
D|-9--9-9-9-9-9--9-9-9-9-9--9-9-9-9-9--9-9-9-9-9--9-9-9-9-9--9-9-9-9---------| 
A|---------------------------------------------------------------------------| 
E|-7--7-7-7-7-5--5-5-5-5-7--7-7-7-7-5--5-5-5-5-7--7-7-7-7-5--5-5-5-5---------| 

e|---------------------------------------------------------------------------| 
B|---------------------------------------------------------------------------| 
G|------------/11--11-11-11-11-9--9-9-9-9-9--9-9-9-9-9--9-9-9-9--------------| 
D|-9--9-9-9-9----------------------------------------------------------------| 
A|------------/-9---9--9--9--9-7--7-7-7-7-7--7-7-7-7-7--7-7-7-7--------------| 
E|-7--7-7-7-7------------------0--0-0-0-0-0--0-0-0-0-0--0-0-0-0--------------| 

e|---------------------------------------------------------------------------| 
B|---------------------------------------------------------------------------| 
G|-9--9-9-9-9-9--9-9-9-9-9--9-9-9-9-9--9-9-9-9-------------------------------| 
D|-8--8-8-8-8-6--6-6-6-6-5--5-5-5-5-5--5-5-5-5-------------------------------| 
A|-7--7-7-7-7-7--7-7-7-7-7--7-7-7-7-7--7-7-7-7-------------------------------| 
E|-0--0-0-0-0-0--0-0-0-0-0--0-0-0-0-0--0-0-0-0-------------------------------| 

  repeat riff A then another quiet part, play with fingers 

e|-0-------0-----------------------------------------------------------------| 
B|---0-------0---0-----------------------------------------------------------| 
G|-----8-------8-------8-----------------------------------------------------| 
D|-6---6-6-9---9---7-6---6---------------------------------------------------| 
A|---------------------------------------------------------------------------| 
E|---------------------------------------------------------------------------| 
  
  riff A again and then end on this 
   pm-----   - 
e|---------------------------------------------------------------------------| 
B|---------------------------------------------------------------------------| 
G|---------------------------------------------------------------------------| 
D|-------------------------------------------------8-9~~---------------------| 
A|---------4---4-5/7-5-7/8-8--7h8-/10h11-11--10h11---------------------------| 
E|-0-3-5-6---6---------------------------------------------------------------| 
        pm---   --------- 
e|---------------------------------------------------------------------------| 
B|---------------------------------------------------------------------------| 
G|---------------------------------------------------------------------------| 
D|---------------------------------------------------------------------------| 
A|----8-------7--------------------------------------------------------------| 
E|-0----7-6-0---0-6-0-5-3-0--------------------------------------------------| 
		  

Full key step upFull key step up
Half key step upHalf key step up
Half key step downHalf key step down
Full key step downFull key step down
hide glossary

See also:

tabs Refused - Dawkins Christ tabs Royal Republic - Full Steam Spacemachine tabs Opeth - Slither tabs Änglagård - Jordrök tabs Opeth - Wreath tabs Evergrey - Blinded (Intro)
e-chords

Other versions:

tabs Opeth - Wreath
auto scroll beats size up size down change color hide chords drawings
tab show chords e-chords YouTube Clip e-chords hide all tabs e-chords go to top tab

share