Oficina G3

Espelhos Magicos (solo)

Oficina G3

tabs Expert expert

by  MAGNUMRSIQ

save to print version add songbook text version e-mail correct tuner
chordsukulelecavacokeyboardtabbassdrumsharmonicaflute Guitar Pro
close

there isn't a video lesson for this song

chords

Espelhos Magicos (solo)

	  		-18b--18~-16b--16~----17-15-14-17-15-14-------- 
------------------------------------------17-15 
----------------------------------------------- 
----------------------------------------------- 
----------------------------------------------- 
----------------------------------------------- 



-17-15-14-------------------------------------- 
----------17-15-14-17-15-14-------------------- 
----------------------------17-15-14-17-15-14-- 
----------------------------------------------- 
----------------------------------------------- 
----------------------------------------------- 


----------------------------------------------- 
----------------------------------------------- 
-16-14-12-------------------------------------- 
----------16-14-12-16-14-12----------16-14-12-- 
----------------------------16-14-12----------- 
----------------------------------------------- 


----------------------------------------------- 
----------------------------------------------- 
-------------12~----11b--------11/12/11-------- 
----------------------------------------------- 
-16-14-12-------------------------------------- 
----------------------------------------------- 


----------------------------------------------- 
------------------------------11-12-14--15/22--(15/22) <- Indicador 
-7/11-12-14-14-12-11-11-12-14------------------              da  
-----------------------------------------------          mão direita    
----------------------------------------------- 
----------------------------------------------- 

----------------------------------------------- 
--15-14-12-14-15-14-12~-5/12----15~--15-17-14~- 
----------------------------------------------- 
----------------------------------------------- 
----------------------------------------------- 
----------------------------------------------- 

-----------------------------------19---19b-17~ 
-14------------------14------------------------ 
----16-14~----14/16------16b-16~--------------- 
----------------------------------------------- 
----------------------------------------------- 
----------------------------------------------- 

----------------------------------------------- 
--5/10-10-8-7-------10-8-7--------------------- 
--------------9-7-6--------9-7-5-9-7-5--------- 
---------------------------------------9-7-5--- 
----------------------------------------------- 
----------------------------------------------- 

----------------------------------------------- 
----------------------------------------------- 
----------------------------------------------- 
-9-7-5-------9-7-5----------------------------- 
-------9-7-5-------9-7-5-------9-7-5----------- 
-------------------------9-7-5----------------- 

		  

See also:

tabs Toque no Altar - Eu vou viver uma virada tabs Atmosfera de Adoração - Aleluia tabs PG - Introdução - Meu Universo tabs Oficina G3 - Espelhos Mágicos tabs Trazendo a Arca - Na Corte Do Egito tabs Fernandinho - Faz chover
e-chords

Other versions:

tabs Banda Doulos - Espelhos mágicos tabs Oficina G3 - Espelhos Mágicos tabs Oficina G3 - Espelhos Mágicos (intro acústico) tabs Oficina G3 - Espelhos Magicos (solo) tabs Oficina G3 - Espelhos Mágicos (ver. 3) tabs Oficina G3 - Espelhos Mágicos - Versão Acústica
auto scroll beats size up size down change color hide chords drawings
tab show chords e-chords YouTube Clip e-chords hide all tabs e-chords go to top tab

share