Metal Nobre

Jerusalém

Metal Nobre

tabs Expert expert

by  IVA...

save to print version add songbook text version e-mail correct tuner
chordsukulelecavacokeyboardtabbassdrumsharmonicaflute Guitar Pro
close

there isn't a video lesson for this song

chords

Jerusalém

	  		 D#||------------16-19h16-----14h11----11-14h11-----|  
 A#||---------17----------17--------12----------12--|  
 F#||*-----16---------------------------------------|  
 C#||*--18------------------------------------------|  
 G#||-----------------------------------------------|  
 D#||-----------------------------------------------|  
 
-----------12-16h12-----11h7---7-11h7----|----------9-12h9-----7h4---4-7h4----| 
--------14----------14-------9--------9--|-------10--------10------5-------5--| 
-----13----------------------------------|-----9------------------------------| 
--14-------------------------------------|--11--------------------------------| 
-----------------------------------------|------------------------------------| 
-----------------------------------------|------------------------------------| 
 
----------9-12h9---------------11-14h11--------|| 
-------10--------10---------12----------12-----|| 
-----9--------------9----11----------------11-*|| 
--11------------------13----------------------*|| 
-----------------------------------------------|| 
-----------------------------------------------|| 
 
----------------------------------|----------------------| 
----------------------------------|----------------8-----| 
--9----7--------------------------|--9----------9-----9--| 
------------10----9----7----10----|----------------------| 
----------------------------------|----------------------| 
----------------------------------|----------------------| 
 
-----------------------------|--------17--15-13-12-15-13-12-------| 
--10b---10b-10b-10r---8--10--|------------------------------15-13-| 
-----------------------------|------------------------------------| 
-----------------------------|------------------------------------| 
-----------------------------|------------------------------------| 
-----------------------------|------------------------------------| 
 
------------------------------------------------|-------------------------| 
--12-15-13-12-----------------------------------|-------------------------| 
--------------14-12-10-12-14-12-10--------------|--------10----9----------| 
-----------------------------------14-12-10-12--|-----------------10------| 
------------------------------------------------|---------------------12--| 
------------------------------------------------|-------------------------| 
 
----------------------------|----------------------|----------------------| 
----------------------------|----------------------|----------------------| 
------------------7--10--9--|--------10b-----10b---|--10r-----9--------9/-| 
---------------7------------|----------------------|----------------------| 
--8--7------8---------------|----------------------|----------------------| 
--------10------------------|----------------------|----------------------| 
 
------13---------12-----------|------13---------12--------15--| 
------------------------------|-------------------------------| 
--10------10/-9------9--9--9--|--10------10/-9------9--9--12--| 
------------------------------|-------------------------------| 
------------------------------|-------------------------------| 
------------------------------|-------------------------------| 
 
--15/-13--13/-12--12--8--8--8--|--8/-10/-12--10----------| 
-------------------------------|-------------------------| 
--12/-10--10/-9---9---5--5--5--|--5/-7/--9---7-----------| 
-------------------------------|-------------------------| 
-------------------------------|-------------------------| 
-------------------------------|-------------------------| 
 
-----------------13-15-17-22-17-15-13-------------| 
--------------15----------------------15----------| 
-----------14----------------------------14-------| 
--------15----------------------------------15----| 
--12-17----------------------------------------17-| 
--------------------------------------------------| 
 
-----------------13-15-17-22-17-15-13-----13-15-| 
--------------15----------------------15--------| 
-----------14-----------------------------------| 
--------15--------------------------------------| 
--12-17-----------------------------------------| 
------------------------------------------------| 
 
--17-15-13----------------------------------------| 
-----------17-15-13-17-15-13----------------------| 
-----------------------------16-14-12-16-14-12----| 
-----------------------------------------------15-| 
--------------------------------------------------| 
--------------------------------------------------| 
 
-------------------------------------8-| 
----------------------------------10---| 
--------------------------14-----------| 
--14-12-15-14-12-----------------------| 
-----------------15-14-12--------------| 
---------------------------------------| 
 
--12-8----8-12-8-12-8----8-12-8-12-8----8-| 
-------10-------------10-------------10---| 
------------------------------------------| 
------------------------------------------| 
------------------------------------------| 
------------------------------------------| 
 
--12-8----8-12-8-12-8----8-12-8-12-8----8-| 
-------10-------------10-------------10---| 
------------------------------------------| 
------------------------------------------| 
------------------------------------------| 
------------------------------------------| 
 
--13-8----8-13-8-13-8----8-13-8-13-8----8-| 
-------10-------------10-------------10---| 
------------------------------------------| 
------------------------------------------| 
------------------------------------------| 
------------------------------------------| 
 
--13-8----8-13-8-13-8----8-13-8-13-8----13-| 
-------10-------------10-------------15----| 
-------------------------------------------| 
-------------------------------------------| 
-------------------------------------------| 
-------------------------------------------| 
 
--17-13----13-17-13-17-13----13-17-13-17-13----13-| 
--------15----------------15----------------15----| 
--------------------------------------------------| 
--------------------------------------------------| 
--------------------------------------------------| 
--------------------------------------------------| 
 
--17-13----13-17-13-17-13----13-17-13-17--13-15-| 
--------15----------------15--------------------| 
------------------------------------------------| 
------------------------------------------------| 
------------------------------------------------| 
------------------------------------------------| 
 
--17-19-20-19-17-15-13-15-17-19-20-19-17-15-13-15-|--15r-----19b---------|| 
--------------------------------------------------|----------------------|| 
--------------------------------------------------|----------------------|| 
--------------------------------------------------|----------------------|| 
--------------------------------------------------|----------------------|| 
--------------------------------------------------|----------------------|| 
 
 

		  

auto scroll beats size up size down change color hide chords drawings
tab show chords e-chords YouTube Clip e-chords hide all tabs e-chords go to top tab

share