Oficina G3

Espelhos Mágicos (intro acústico)

Oficina G3

tabs Expert expert

by  ZAHAILO

save to print version add songbook text version e-mail correct tuner
chordsukulelecavacokeyboardtabbassdrumsharmonicaflute Guitar Pro
close

there isn't a video lesson for this song

chords

Espelhos Mágicos (intro acústico)

	  		  
      B5              A5            G5            
e|--------------------------------------------------------------  
B|------------------------------------------------------3---5---  
G|----------9--7-7-------------------------------9--7----4---6-- 
D|----------9--7-7-------------------------------9--7-5---5---7-  
A|-------------------7-5----9-10-9------------------------------  
E|-7-7-7-7-----------5-3--10------12-10--7-7-7-7----------------  
  
  
       Bm  
e|-------------------------------------------------------------  
B|-------------------------------------------------------------  
G|-------------------------------------------------------------  
D|-------------------------------------------------------------  
A|-9---------------------------7-7-------------------------------  
E|-7-77--777--777--777--777-7--5-5-------------------------------- 
usar som abafado 
  
      Bm        A        F#m          G       Em       A  
e|----10--9--7--12--10-9---------------------------------------  
B|-----------------------7--7--8--10--8--7--------7--8---------  
G|-----------------------------------------7--9--------9--6----  
D|-------------------------------------------------------------  
A|-------------------------------------------------------------  
E|-------------------------------------------------------------  
  
  
       Bm  
e|-----10--9----------10--9----------10--9----------10~--------  
B|------------10-------------10-------------10-----------------  
G|----------------11-------------11-------------11-------------  
D|-------------------------------------------------------------  
A|-------------------------------------------------------------  
E|-------------------------------------------------------------  
  
Bm  
   Os homens e seus...  


		  

Full key step upFull key step up
Half key step upHalf key step up
Half key step downHalf key step down
Full key step downFull key step down
hide glossary

See also:

tabs Fernanda Brum - Espírito Santo tabs Atmosfera de Adoração - Agnus Dei(Solo) tabs Metal Nobre - Jerusalém tabs Oficina G3 - Brasil tabs Diante do Trono - Me Ama tabs Oficina G3 - Minha Luta
e-chords

Other versions:

tabs Banda Doulos - Espelhos mágicos tabs Oficina G3 - Espelhos Mágicos tabs Oficina G3 - Espelhos Mágicos (intro acústico) tabs Oficina G3 - Espelhos Magicos (solo) tabs Oficina G3 - Espelhos Mágicos (ver. 3) tabs Oficina G3 - Espelhos Mágicos - Versão Acústica
auto scroll beats size up size down change color hide chords drawings
tab show chords e-chords YouTube Clip e-chords hide all tabs e-chords go to top tab

share