Fernandinho

Faz chover

Fernandinho

tabs Advanced advanced

by  BETOJERUBAAL

save to print version add songbook text version e-mail correct tuner
chordsukulelecavacokeyboardtabbassdrumsharmonicaflute Guitar Pro
close

there isn't a video lesson for this song

chords

Faz chover

Year: 2005 - Album: Faz Chover - Ao Vivo

(Faz chover)

	  		(Tablatura de guitarra) 
e|-7-9-10-----------------------10-9-7-----------------| 
B|--------7-8~~~--7-8-10-8-7-----------10-8-7--10-10/12| 
G|---------------------------9~~7--7-7-7--7-7----------| 
D|-----------------------------------------------------| 
A|-----------------------------------------------------| 
E|-----------------------------------------------------| 
 
e|-----------------------------------------------------| 
B|-10~~---12-14-15-12-14-15-12-14-15-14-15-17-14-15-17-| 
G|-----------------------------------------------------| 
D|-----------------------------------------------------| 
A|-----------------------------------------------------| 
 
e|-------------19h-------------------------------------| 
B|-17~-19~~----19h-------------------------------------| 
G|-----------------------------------------------------| 
D|-----------------------------------------------------| 
A|-----------------------------------------------------| 
E|-----------------------------------------------------| 
		  

See also:

tabs Oficina G3 - Espelhos Mágicos (intro acústico) tabs Atmosfera de Adoração - Aleluia tabs Oficina G3 - o tempo (ver. 2) tabs Diante do Trono - Me Ama tabs Oficina G3 - Deus Eterno tabs Novo Som - Acredita
e-chords

Other versions:

tabs Fernandinho - Faz chover tabs Toque no Altar - Faz chover tabs Unção Ágape - Faz chover tabs PG - FAZ CHOVER tabs Renascer Praise - Faz Chover (ver. 2) tabs Fernandinho - Faz chover (ver. 3)
auto scroll beats size up size down change color hide chords drawings
tab show chords e-chords YouTube Clip e-chords hide all tabs e-chords go to top tab

share