Oasis

home > Oasis

Shakermaker (solo) Tab

Oasis

Difficulty: AdvancedAdvanced

by higgins55

tuner correct add songbook print version text version save to e-mail
chordsukulelecavacokeyboardtabbassdrumsharmonicsflute Guitar Pro
chords

Shakermaker (solo)

  		Oasis 
Shakermaker 
 
 
Intro riff: 
                                              slide 
---------------------------------------0------------------------------------ 
-------0------------0------------0-------0---------------0-----------0------ 
-----2---2--------2---2--------2---2-------2-----------7---7-------7---7---- 
---1-------1----1-------1----1-------1-------1-------6-------6---6-------6-- 
-2------------2------------2-----------------------7-----------7------------ 
---------------------------------------------------------------------------- 
 
                           chords: A    E   B   F# 
-------------------------}       --0----7---2---2-- 
-------0-----------0-----}       --2----9---4---2-- 
-----2---2-------2---2---}       --2----9---4---3-- 
---1-------1---1-------1-}       --2----9---4---4-- 
-2-----------2-----------}       --0----7---2---4-- 
-------------------------}       ---------------2-- 
 
B  
I'd like to be somebody else and not know where I've been  
E                                                B  
I'd like to build myself a house out of plasticine  
A         E                                       B  
Aaaah, aaaaah, Shake along with me  
A         E                                      B     F#  
Aaaah, aaaaah, Shake along with me  
B  
I've been driving in my car with my friend Mr. Soft  
E                                     B 
Mr. Clean and Mr.Ben are living in my loft 
A         E                                       B  
Aaaah, aaaaah, Shake along with me  
A         E                                      B     F#  
Aaaah, aaaaah, Shake along with me  
 
 
 
solo 
(same chords as the verses) 
 
---------------------------------------------------------------------------------- 
---------------------------------------------------------------------------------- 
------4--------------4--------------4--------------4------------------------------- 
--4h6---6--------4h6---6--------4h6---6--------4h6----6----------------------------  
-----------4b6-2---------4b6-2----------4b6-2-----------4b6-2-----------5-------5-- 
----------------------------------------------------------------0-0-4-7-----4-7---- 
 
----------------------------------------------------------------------------------- 
----------------------------------------------------------------------------------- 
------------------------4--------------4--------------4-------------4-4h6-4--4h6-4- 
--------------------4h6---6--------4h6---6--------4h6---6-------4h6---------------- 
---------5------5-----------4b6-2----------4b6-2----------4b6-2-------------------- 
-0-0-4-7----4-7-------------------------------------------------------------------- 
 
----------------------------------------------------------------------------------- 
----------------------------------------------------------------------------------- 
------4------4---6b8--6b8--4------------------------------------------------------- 
--4h6----4h6----------------------------------------------------------------------- 
----------------------------------------------------------------------------------- 
----------------------------------------------------------------------------------- 
 
(the solo is pretty simple, if you listen to it you will get the general idea of timing etc.) 
 
D                      A             B 
I'm sorry but I just don't know 
D                      A           B 
I know I said I told you so 
D                                                  A          B 
But when you're happy and you're feeling fine 
                                               A                E 
Then you'll know that it's the right time 
                                            A                 E 
Yeah, you know that it's the right time 
                                        (repeat the intro riff) 
To shake along with me!  
B 
Mister Sifter sold me songs when I was just sixteen 
E                                                    B 
Now he stops at traffic lights but only when they're green 
A         E                                       B  
Aaaah, aaaaah, Shake along with me  
A         E                                      B     F#  
Aaaah, aaaaah, Shake along with me  
A         E 
Aaaah, aaaaah 
(intro riff without the slide until the very end) 
Shake along with me (X a whole bunch) 
 

	  

Full key step upFull key step up
Half key step upHalf key step up
Half key step downHalf key step down
Full key step downFull key step down
Search Paypal
auto scroll beats size up size down change color hide chords drawings
tab show chords e-chords YouTube Clip e-chords hide all tabs e-chords go to top tab