Oasis

home > Oasis

Wonderwall Tab

Oasis

Difficulty: nolevelnolevel

by Teusalves

tuner correct add songbook print version text version save to e-mail
chordsukulelecavacokeyboardtabbassdrummharmonicsflute Guitar Pro
chords

Wonderwall

Year: 1995 - Album: Familiar To Millions

  		 
  

    Em7	             G	           Dsus4	     A7sus4  
e--3--3--3--3-3-3-|-3-3--3--3-3-|-3-3-3--3--3--3-|-3--3--3-3-3-3-3-3-3--  
B--3--3--3--3-3-3-|-3-3--3--3-3-|-3-3-3--3--3--3-|-3--3--3-3-3-3-3-3-3--  
G--0--0--0--0-0-0-|-0-0--0--0-0-|-0-2-2--2--2--0-|-0--0--0-0-0-0-0-0-0--  
D--2--2--2--2-2-2-|-0-0--0--0-0-|-0-0-0--0--0--0-|-2--2--0-2-2-0-2-2-0--  
A--2--2--2--2-2-2-|-2-2--2--2-2-|----------------|-0--0----0-0-0-0-0----  
E--0--0--0--0-0-0-|-3-3--3--3-3-|---------------------------------------  
  
  
  
  
    Cadd9            Dsus4	      Em7  
And all the roads we have to walk are winding  
e-------3------------2h3p2----------------------------------------  
B----------3----------------3-------------------------------------  
G-------------0----------------2-----------------0-----------0----  
D--------------------0------------------------0---------0h2-------  
A---3------------------------------------0h2---------2------------  
E-------------------------------------0---------------------------  
  
  
e-------3--------3--------3---------3-----------------0-------------0---------  
B---------3--------3--------3---------3-----------3------3--------------3-----  
G-----------0--------0--------0---------0-----------0------0----------------0-  
D-----------------------------------------------------------------------------  
A---------------------------------------------------------------2-------------  
E-----3-------2---------0---------3-----------0-------------------------------  
  
e-----------0---------------------  
B------3-------3-------3----------  
G--------0-------0----------------  
D-----------------------------0---  
A--0-----------------2----0h2-----  
E---------------------------------  

  
		e--3-3-3-3-3-3-3---  
		B--3-3-3-3-3-3-3---  
		G--0-0-0-0-0-0-0---   (and then right back into chord  
		D--0-2-2-0-2-2-0---    progression for the verses)  
		A--0-0-0-0-0-0-0---  
		E------------------  
  

  
   Cadd9    Em7     G       Em7  
e--------3--0-------------3--0----  
B--0--1----------1--0--1----------  
G---------------------------------  
D---------------------------------  
A---------------------------------  
E---------------------------------  
  
  
{NOTE: this little riff is played WITHOUT a capo}  
  
                           A        A  
e--------------0--------------------0-----  
B--------0--------0--------2--------2-----  
G-----------2--------2-----2--------2-----  
D-----4-----------------0--2--4--2--2-----  
A--4-----------------------0--0-----0-----  
E----------------------------------------- 
	  

Full key step upFull key step up
Half key step upHalf key step up
Half key step downHalf key step down
Full key step downFull key step down
Search Paypal
auto scroll beats size up size down change color hide chords drawings
tab show chords e-chords YouTube Clip e-chords hide all tabs e-chords go to top tab