Oasis

Champagne Supernova (ver. 2)

Oasis

tabs Beginner beginner

by  LUISALONSO

save to print version add songbook text version e-mail correct tuner
chordsukulelecavacokeyboardtabbassdrumsharmonicaflute Guitar Pro
close

there isn't a video lesson for this song

chords

Champagne Supernova (ver. 2)

	  		"Champagne Supernova" 
 Oasis 

(0:32) G------------------- 
       D-------------------  x4 
       A------------------- 
       E--5--5-3--3-2--2-0- 

(1:25) G-------------------------------------------------------------   x5 
       D------------------------------------------------------------- 
       A------------------------------------------------------------- 
       E-5--5-5-5-5-5-5-3--3-3-3-3-3-3-2--2-2-2-2-2-2-0--0-0-0-0-0-0- 

(2:25)G------------------------------------------------------------- 
      D------------------------------------------------------------- 
      A------------------------------------------------------------- 
      E-3--3-3-3-3-3-3-3--3-3-3-3-3-3-5--5-5-5-5-5-5-5--5-5-5-5-5-5- 

      G------------------------------------------------------------ 
      D------------------------------------------------------------ 
      A---------------5--5-5-5-5-5-5-7--7-7-7-7-7-7-7--7-7-7-7-7-7- 
      E-3--3-3-3-3-3-3--------------------------------------------- 


(2:52)G------------------------------------------------------------- 
      D-------------------------------------------------------------   x2 
      A------------------------------------------------------------- 
      E-5--5-5-5-5-5-5-3--3-3-3-3-3-3-2--2-2-2-2-2-2-0--0-0-0-0-0-0- 

(3:18)G------------------ 
      D------------------ x2 
      A------------------ 
      E-5--5-3--3-2--2-0- 

(3:43)G------------------------------------------------------------- 
      D-------------------------------------------------------------   x2 
      A------------------------------------------------------------- 
      E-5--5-5-5-5-5-5-3--3-3-3-3-3-3-2--2-2-2-2-2-2-0--0-0-0-0-0-0- 

(4:08)G----------------------------------------------------------- 
      D-----------------------------------------------------------  
      A----------------------------------------------------------- 
      E-3--3-3-3-3-3-3-3--3-3-3-3-3-5--5-5-5-5-5-5-5--5-5-5-5-5-5- 

      G------------------------------------------------------------ 
      D------------------------------------------------------------ 
      A---------------5--5-5-5-5-5-5-7--7-7-7-7-7-7-7--7-7-7-7-7-7- 
      E-3--3-3-3-3-3-3--------------------------------------------- 

(4:34)G------------------------------------------------------------- 
      D-------------------------------------------------------------  x2   
      A------------------------------------------------------------- 
      E-5--5-5-5-5-5-5-3--3-3-3-3-3-3-2--2-2-2-2-2-2-0--0-0-0-0-0-0- 

(4:57)G---------------------------------------------- 
      D----------------------------------------------  x4 
      A---------------------------------------------- 
      E-1--1-1-1-1-1-1-3--3-3-3-3-3-3-5--5-5-5-5-5-5- 

(5:34)G------------------------------------------------------------- 
      D------------------------------------------------------------- x2 
      A------------------------------------------------------------- 
      E-5--5-5-5-5-5-5-3--3-3-3-3-3-3-2--2-2-2-2-2-2-0--0-0-0-0-0-0- 

(5:57)G------------------ 
      D------------------  x4 
      A------------------ 
      E-5--5-3--3-2--2-0- 

(6:46)End of Bass 

Tab por Luis (Con colaboracion del Fer)
		  

See also:

tabs Oasis - Go Let It Out (Tab p/ bateria) tabs Blur - Song 2 (ver. 2) tabs Bush - Greedy Fly tabs Jethro Tull - Mother Goose tabs Arctic Monkeys - Do I Wanna Know? tabs Greg Lake - I Believe In Father Christmas
e-chords

Other versions:

tabs Oasis - Champagne Supernova tabs Oasis - Champagne Supernova (ver. 2)
auto scroll beats size up size down change color hide chords drawings
tab show chords e-chords YouTube Clip e-chords hide all tabs e-chords go to top tab

share