The 1975

home > The 1975

Its Not Living If Its Not With You Tab

The 1975

Difficulty: nolevelnolevel

by gustsilva

tuner correct add songbook print version text version save to e-mail
chordsukulelecavacokeyboardtabbassdrumsharmonicsflute Guitar Pro
chords

Its Not Living If Its Not With You

  		Intro 

e|--------11-------------------------| 
B|--11/13-----11\9---------11/13-11--| 
G|-------------------8h10------------| 
D|-----------------------------------| (x4) 
A|-----------------------------------| 
E|-----------------------------------| 

e|--------11-------------------------| 
B|--11/13-----11\9~------------------| 
G|-----------------------------------| 
D|-----------------------------------| 
A|-----------------------------------| 
E|-----------------------------------| 

OR you can play the intro like this: 

e|------------------------------------| 
B|--------16--------------------------| 
G|--15/17-----15\13---------15/17-15--| 
D|--------------------13h15-----------| (x4) 
A|------------------------------------| 
E|------------------------------------| 

e|------------------------------------| 
B|--------16--------------------------| 
G|--15/17-----15\13~------------------| 
D|------------------------------------| 
A|------------------------------------| 
E|------------------------------------|  
	  

Search Paypal
auto scroll beats size up size down change color hide chords drawings
tab show chords e-chords YouTube Clip e-chords hide all tabs e-chords go to top tab