Arctic Monkeys

home > Arctic Monkeys

R U Mine? Tab

Arctic Monkeys

Difficulty: BeginnerBeginner

by IronPower4Ever

tuner correct add songbook print version text version save to e-mail
chordsukulelecavacokeyboardtabbassdrumsharmonicsflute Guitar Pro
chords

R U Mine?

	  
Intro riff 

e|-------------------------------| 
B|-------------------------------| 
G|-------------------------------| 
D|-------------------------------| 
A|-------/4-2-4-5-5-5-4-2-14-----| 
E|-2-2-2-------------------------| x4 

Verse 

e|--------------------------------------------------------------| 
B|--------------------------------------------------------------| 
G|----------------2---------------------------------------------| 
D|------------2h4---4-2-----------------------------------------| 
A|--------2h4------------5-5-5-4-2-2-2-0------------------------| 
E|-2-2-2--------------------------------------------------------| x4 

R U Mine?  (chorus)  
e|-------------------------------| 
B|-------------------------------| 
G|-------------------------------| 
D|-------------------------------| 
A|--------------5-5-5-4-2-2-2-0--| 
E|-2-2-2-------------------------| x3 

e|------------------------------------------------| 
B|------------------------------------------------| 
G|---------------------------------------4-2------| 
D|-------------2h4-----2h4---------------4-2-4----| 
A|---------2h4-----2h4-----2-4-5-5-5-4---2-0-4----| 
E|-2-2-2-------------------------------------2----|  

Verse - bass only then verse riff 

Chorus: 'R U Mine?'  

Bridge 

e|-------------| 
B|-------------| 
G|-9--6--------| 
D|-9--6--------| 
A|-7--4--------| 
E|-------------| 

In the foot of the chase..                 Just wanna say you got me baby, are you mine?  
e|-------------------------------------------------------------| 
B|-------------------------------------------------------------| 
G|-4-4-4-6-7-7-------------------------------------------------| 
D|-4-4-4-6-7-7-4-4-7-7-9--------------12-11-9-7-4--------------| 
A|-2-2-2-4-5-5-4-4-7-7-9--------------12-11-9-7-4--------------| 
E|-------------2-2-5-5-7--------------10-9--7-5-2--------------| 

Solo 

e|-----------------------------------------------------------------------| 
B|-----------------7-10-10b12-12-----------------------------------------| 
G|-------------6-9---------------9b11-9----------------------------------| 
D|---------7-9-----------------------------------------------------------| 
A|-----7-9-----------------------------------------------------5-5-5-4-2-| 
E|--7-9-----------------------------------2-2-2---5h7p5h7p5--------------| 

e|-------------------| 
B|-------------------| 
G|-------------------| 
D| -----------4-4-4--| 
A|-0-2-4-0---4-4-4---| 
E| -----------2-2-2--| 

Verse 

End chorus 

e|--------------------------------| 
B|--------------------------------| 
G|--------------7-7-7-7-4-4-4-4---| 
D|--4-4-4-4-4--7-7-7-7-4-4-4-4----| 
A|--4-4-4-4-4--5-5-5-5-2-2-2-2----| 
E|--2-2-2-2-2---------------------| x3 

Fourth time:  

e|---------------------------------------------------| 
B|---------------------------------------------------| 
G|-----------------2------------2----------7-2-------| 
D|--4-4-4------2h4--4-2-----2h4--4-2-------7-2--4-4-4| 
A|--4-4-4--2h4----------4-2-----------4-2--4-0--4-4-2| 
E|--2-2-2---------------------------------------2-2-2|  
 
	  

there is a video lesson for this song
view full video
Search
auto scroll beats size up size down change color hide chords drawings
tab show chords e-chords YouTube Clip e-chords hide all tabs e-chords go to top tab