Mississipi John Hurt

My Creole Belle

Mississipi John Hurt

tabs Expert expert

by  ROWANE

save to print version add songbook text version e-mail correct tuner
chordsukulelecavacokeyboardtabbassdrumsharmonicaflute Guitar Pro
close

there isn't a video lesson for this song

chords

My Creole Belle

Written by Mississippi John Hurt

	  		My Creole Belle: Mississippi John Hurt 
Standard Tuning 
 
 
                       C               F 
 
                 E|----0------0-----|-----------------|------0-------0------| 
                 B|--------3--------|-----------------|----------3----------| 
                 G|-----------------|--2--------------|---------------------| 
                 D|----2---------2--|------3-------3--|------3-----------3--| 
                 A|--------3--------|-----------------|---------------------| 
                 E|-----------------|--1-------1------|--1-------1----------| 
        
 
 
   C                                   G 
 
|-----------------|-----------------|----------3---------|----3---1----3----| 
|-----------------|------1-------0--|--------------------|------------------| 
|--0--------------|----------3------|--0-----------------|----0-------------| 
|------2-------2--|------2----------|------0----------3--|-------------0----| 
|-----------------|--3--------------|--------------------|------------------| 
|--3-------3------|-----------------|--3----------3------|-3------3---------| 
 
 
 
   C                                 F                            C 
 
|--------0--------|-----0-----0---|--------------|----0-----0---|-----------| 
|-----------------|--------3------|--------------|-------3------|-----------| 
|-----------------|---------------|--2-----------|--------------|-0---------| 
|-----2--------2--|-----2-----2---|-----3-----3--|----3-------3-|---2----2--| 
|--3--------3-----|--3-----3------|--------------|--------------|-3---3-----| 
|-----------------|---------------|--1-----1-----|-1-----1------|-----------| 
 
 
                  G                                 C 
 
|--------------|--------3--------|-----1--0------|--------------|-----------| 
|-----1-----0--|-----------------|------------3--|--1-----------|-----------| 
|--------2-----|--0--------------|---------------|--------------|-----------| 
|-----2--------|-----0--------0--|-----0------0--|-----2--------|-----------| 
|--3-----------|-----------------|---------------|--3--------0--|----3------| 
|--------------|--3--------3-----|--3-----3------|--------3-----|-----------| 
 
 
My Creole Belle, I Love Her well.   
My darlin' baby, My Creole Belle. 
My Creole Belle, I Love Her well.   
My darlin' baby, My Creole Belle. 
 
When stars shine, I'll Call her mine. 
My darlin' baby, My Creole Belle. 
When stars shine, I'll Call her mine. 
My darlin' baby, My Creole Belle. 
 
My Creole Belle, I Love Her well.   
My darlin' baby, My Creole Belle. 
My Creole Belle, I Love Her well.   
My darlin' baby, My Creole Belle. 
 
 

		  

Full key step upFull key step up
Half key step upHalf key step up
Half key step downHalf key step down
Full key step downFull key step down
auto scroll beats size up size down change color hide chords drawings
tab show chords e-chords YouTube Clip e-chords hide all tabs e-chords go to top tab

share