Robert Johnson

home > Robert Johnson

Me and the devil Blues Tab

Robert Johnson

Difficulty: ExpertExpert

by Rowane

tuner correct add songbook print version text version save to e-mail
chordsukulelecavacokeyboardtabbassdrumsharmonicsflute Guitar Pro
chords

Me and the devil Blues

  		Me and the devil Blues: Robert Johnson 
 
() 
 
INTRO: 
 
e -|-9-9-9-9-9----|-8-8-8-8-8----|-7-7-7-7-7----|-5----5-5--5-5--5-5--5------ 
B -|-8-8-8-8-8----|-7-7-7-7-7----|-6-6-6-6-6----|-5-------------------------- 
G -|-9-9-9-9-9----|-8-8-8-8-8----|-7-7-7-7-7----|-6-------------------------- 
D -|--------------|--------------|--------------|------5-5--4-4--3-3--2------ 
A -|--------------|--------------|--------------|---0--------------------2-2- 
E -|--------------|--------------|--------------|------------------------0-0- 
 
FIRST VERSE: 
 
e -|-8/9---------------------|---|- 
B -|-7/8---------------------|---|- 
G -|-8/9---------------------|---|- 
D -|-------------------------|---|- 
A -|-------------------------|---|- 
E -|-------------------------|---|- 
 
    Early this morning         
     
e -|-8/9~------------------------|-9-9-9-9-9-8-8-8-8-9-9-8-8-9-|- 
B -|-7/8~------------------------|-8-8-8-8-8-7-7-7-7-8-8-7-7-8-|- 
G -|-8/9~------------------------|-9-9-9-9-9-8-8-8-8-9-9-8-8-9-|- 
D -|-----------------------------|-----------------------------|- 
A -|-----------------------------|-----------------------------|- 
E -|-----------------------------|-----------------------------|- 
    
    when you knocked upon my door 
 
e -|-2-----------------------|---|- 
B -|-1-----------------------|---|- 
G -|-2----2----2----2--------|---|- 
D -|-------------------------|---|- 
A -|-------------------------|---|- 
E -|------2----2----2--------|---|- 
 
    Early this morning          
     
e -|-------------------------|------------------|- 
B -|-------------------------|-8-8-8-8--8-8-8-8-|- 
G -|--2-----2-----2----2-----|-6-6-6-6--6-6-6-6-|- 
D -|-------------------------|-7-7-7-7--7-7-7-7-|- 
A -|-------------------------|------------------|- 
E -|--2-----2-----2----2-----|------------------|- 
     
    when you knocked upon my door 
 
e -|-------------------------|-------------------------|- 
B -|-------------------------|-------------------------|- 
G -|-------------------------|-------------------------|- 
D -|--0----0----0----0-------|--0----0----0----0-------|- 
A -|--2----2----2----2-------|--0----0----0----0-------|- 
E -|--0----0----0----0-------|--2----2----2----2-------|- 
 
    And I said "Hello Satan    I believe it's time to go" 
     
e -|-------5-5--5-5--5-5--|-----|- 
B -|--2-------------------|-3-3-|- 
G -|--2-------------------|-1-1-|- 
D -|--2----5-5--4-4--3-3--|-2-2-|- 
A -|----------------------|-----|- 
E -|----------------------|-----|-   
 
    turnaround 
     
------------------------ 
 
Me and the Devil was walking side by side 
Me and the Devil was walking side by side 
I'm goin' to beat my woman until I get satisfied 
 
She say you don't see why that I will dog her 'round 
She say you don't see why that I will dog her 'round 
It must be that ol' evil spirit so deep down in the ground 
 
You my burn my body down by the highway side 
You my burn my body down by the highway side 
So my old evil spirit can get a Greyhound bus and ride 
 
 

	  

Search Paypal
auto scroll beats size up size down change color hide chords drawings
tab show chords e-chords YouTube Clip e-chords hide all tabs e-chords go to top tab