Blues Songs

Blues Shuffle

Blues Songs

tabs Easy easy

by  WEEZER PILLOWS

save to print version add songbook text version e-mail correct tuner
chordsukulelecavacokeyboardtabbassdrumsharmonicaflute Guitar Pro
close

there isn't a video lesson for this song

chords

Blues Shuffle

	  		The blues shuffle 
tabbed by: Weezer Pillows 
 
|--0-0-0-0-0-0-0-0--| 
|--0-0-2-2-3-3-2-2--| 
|--1-1-1-1-1-1-1-1--| 
|--2-2-2-2-2-2-2-2--|x2 
|--2-2-2-2-2-2-2-2--| 
|--0-0-0-0-0-0-0-0--| 
 
|--0-0-2-2-3-3-2-2--| 
|--2-2-2-2-2-2-2-2--| 
|--0-0-0-0-0-0-0-0--| 
|--2-2-2-2-2-2-2-2--|x2 
|--0-0-0-0-0-0-0-0--| 
|-------------------| 
 
|--0-0-0-0-0-0-0-0--| 
|--0-0-2-2-3-3-2-2--| 
|--1-1-1-1-1-1-1-1--| 
|--2-2-2-2-2-2-2-2--|x2 
|--2-2-2-2-2-2-2-2--| 
|--0-0-0-0-0-0-0-0--| 
 
|--0-0-2-2-3-3-2-2--| 
|--2-2-2-2-2-2-2-2--| 
|--0-0-0-0-0-0-0-0--| 
|--2-2-2-2-2-2-2-2--|x2 
|--0-0-0-0-0-0-0-0--| 
|-------------------| 
 
|--0-0-0-0-0-0-0-0-0-0-0-0-0-0-0-0--| 
|--2-2-2-2-2-2-2-3-0-0-0-0-0-0-0-0--| 
|--1-1-1-1-1-1-1-0-1-1-1-1-1-1-1-1--| 
|--2-2-2-2-2-2-2-3-2-2-2-2-2-2-2-2--| 
|--0-0-0-0-0-0-0-0-2-2-2-2-2-2-2-2--| 
|------------------0-0-0-0-0-0-0-0--| 
 
|----4--3--2--0~--| 
|-------------0~--| 
|--4--3--2----1~--| 
|-------------2~--| 
|-------------2~--| 
|-------------0~--| 
 
That's all folks! 
 
have fun! 

		  

See also:

tabs Albert King - Personal Manager tabs Blind Blake - Diddie wa diddie tabs Robert Johnson - Come on in my kitchen tabs Mississipi John Hurt - Nobody cares for me tabs 32-20 bLUES - Robert Johnson tabs John Lee Hooker - Im in the mood
e-chords

Other versions:

tabs Blues Songs - Blues Shuffle
auto scroll beats size up size down change color hide chords drawings
tab show chords e-chords YouTube Clip e-chords hide all tabs e-chords go to top tab

share