Misc Television

Mayans Mc - Nunca

Misc Television

tabs

by  TERCMORAES

save to print version add songbook text version e-mail correct tuner
chordsukulelecavacokeyboardtabbassdrumsharmonicaflute Guitar Pro
close

there isn't a video lesson for this song

chords

Mayans Mc - Nunca

	  		Solo 

Starting on fret #11 - D#m 
First part: 

e|----------------------------11-----------------11-11----13b14r--11-------11-11-| 
B|-------------------------11----14b16r----11-14-------14------------11-14-------| 
G|-------11----11-13-11-13-------------------------------------------------------| 
D|-11/13----13-------------------------------------------------------------------| 
A|-------------------------------------------------------------------------------| 
E|-------------------------------------------------------------------------------| 

e|------------------------------------------------------| 
B|-14-11------------------------------------------------| 
G|-------13-11--11-13-11----11--------------------------| 
D|-----------------------13----13---11------------------| 
A|-------------------------------------13-11\9----------| 
E|---------------------------------------------11(~)----| 

Second part (end): 

e|-------11-11-------11-11----11-11-11-14-11-11--11-14-11-14b16r----14b16r--| 
B|-11-14-------11-14-------14-----------------------------------------------| 
G|--------------------------------------------------------------------------| 
D|--------------------------------------------------------------------------| 
A|--------------------------------------------------------------------------| 
E|--------------------------------------------------------------------------| 

e|-11---------------11------------11------------------------------------------| 
B|----11---------11------------11----14---------------------------------------| 
G|-------13b15r--------13b15r-----------13b15r--13b15r--13b15r--11-13p11(~)---| 
D|----------------------------------------------------------------------------| 
A|----------------------------------------------------------------------------| 
E|----------------------------------------------------------------------------| 


************************* 

| p   Pull-off 
| b   Bend 
| r   Release 
| /   Slide up 
| \   Slide down 
|(~)  Vibrato 

************************* 

For a better sync, listen the song on YouTube and try to play along. 
Cheers brother! 
		  

Full key step upFull key step up
Half key step upHalf key step up
Half key step downHalf key step down
Full key step downFull key step down
hide glossary

See also:

tabs David Aguilar - Eco tabs Misc Computer Games - The Witcher 3 Ost - Lullaby Of Woe A Night To Remember Song (acoustic) tabs Misc Computer Games - Damned Black Ops Zombies Menu Music tabs Misc Computer Games - Undertale - His Theme tabs Misc Television - Gravity Falls Theme tabs Misc Computer Games - Far Cry 5 - We Will Rise Again
e-chords

Other versions:

tabs Misc Television - Mayans Mc - Nunca
auto scroll beats size up size down change color hide chords drawings
tab show chords e-chords YouTube Clip e-chords hide all tabs e-chords go to top tab

share