Misc Cartoons

home > Misc Cartoons

Avatar The Last Airbender - Secret Tunnel Tab

Misc Cartoons

Difficulty: nolevelnolevel

by adalgomes

tuner correct add songbook print version text version save to e-mail
chordsukulelecavacokeyboardtabbassdrumsharmonicsflute Guitar Pro
chords

Avatar The Last Airbender - Secret Tunnel

  		------------------------------------------------------------------------------- 
                             SECRET TUNNEL: Earth Nomads 
------------------------------------------------------------------------------- 

INTRO 
e|----0-----0------0-----0-----0-----0-----0-----0--| 
B|----2-----2------2-----2-----2-----2-----2-----2--| 
G|----2-----2------2-----2-----2-----2-----2-----2--| 
D|--------------------------------------------------| 
A|-0------------0-----------0-----------0-----------| 
E|-------0------------0-----------0-----------0-----| 

A 
Two lovers.........................war divides their 
e|----0-----0------0-----0-----0-----0-----0-----0--| 
B|----2-----2------2-----2-----2-----2-----2-----2--| 
G|----2-----2------2-----2-----2-----2-----2-----2--|   (Repeat as needed) 
D|--------------------------------------------------| 
A|-0------------0-----------0-----------0-----------| 
E|-------0------------0-----------0-----------0-----| 

E                                                  A 
People...............................divides them apart 
e|----0-----0-----0-----0-----0-----0-----0-----0-----0-----0-----0-----0----| 
B|----0-----0-----0-----0-----0-----0-----0-----0-----2-----2-----2-----2----| 
G|----1-----1-----1-----1-----1-----1-----1-----1-----2-----2-----2-----2----| 
D|---------------------------------------------------------------------------| 
A|-------------------------------------------------0-----------0-------------| 
E|-0-----0-----0-----0-----0-----0-----0-----0-----------0-----------0-------| 



And I forget the next few lines but then it goes... 

(strum) 
A              F#m 
SECRET TUNNEL! SECRET TUNNEL! 
F#m 
THROUGH THE MOUNTAIN! 
E                              A 
Secret, secret, secret, secret TUNNEL! 



Chords for strumming: 

  A         F#m       E 
e|---------|--2------|---------| 
B|--2------|--2------|---------| 
G|--2------|--2------|---------| 
D|--2------|--2------|--1------| 
A|---------|---------|--2------| 
E|---------|---------|--2------| 
	  

Full key step upFull key step up
Half key step upHalf key step up
Half key step downHalf key step down
Full key step downFull key step down
Search Paypal
auto scroll beats size up size down change color hide chords drawings
tab show chords e-chords YouTube Clip e-chords hide all tabs e-chords go to top tab