Misc Cartoons

Caillou Theme Song Tab

Misc Cartoons

Difficulty: nolevelnolevel

by jessgomes

tuner correct add songbook print version text version save to e-mail
chordsukulelecavacokeyboardtabbassdrumsharmonicsflute Guitar Pro
close

there isn't a video lesson for this song

chords

Caillou Theme Song

  		

(0:00-0:03) 
e|-18----15--15-13--13-15----/18----15--15-13--13-15-------------------------| 
B|---------------------------------------------------------------------------| 
G|---------------------------------------------------------------------------| 
D|---------------------------------------------------------------------------| 
A|---------------------------------------------------------------------------| 
E|---------------------------------------------------------------------------| 

(0:03-0:07) 
e|-/18----15--15-13--13-15---------------------------------------------------| 
B|----------------------------13----11---------------------------------------| 
G|---------------------------------------------------------------------------| 
D|---------------------------------------------------------------------------| 
A|---------------------------------------------------------------------------| 
E|---------------------------------------------------------------------------| 

(0:07-0:11) 
e|-18----15--15-13--13-15----/18----15--15-13--13-15-------------------------| 
B|---------------------------------------------------------------------------| 
G|---------------------------------------------------------------------------| 
D|---------------------------------------------------------------------------| 
A|---------------------------------------------------------------------------| 
E|---------------------------------------------------------------------------| 

(0:11-0:14) 
e|-/18----15--15-13--13-15---------------------------------------------------| 
B|----------------------------13----11---------------------------------------| 
G|---------------------------------------------------------------------------| 
D|---------------------------------------------------------------------------| 
A|---------------------------------------------------------------------------| 
E|---------------------------------------------------------------------------| 

(0:14-0:17) 
e|-18----15--15-13--13-15----/18----15--15-13--13-15-------------------------| 
B|---------------------------------------------------------------------------| 
G|---------------------------------------------------------------------------| 
D|---------------------------------------------------------------------------| 
A|---------------------------------------------------------------------------| 
E|---------------------------------------------------------------------------| 

(0:17-0:21) 
e|-/18----15--15-13--13-15---------------------------------------------------| 
B|----------------------------13----11---------------------------------------| 
G|---------------------------------------------------------------------------| 
D|---------------------------------------------------------------------------| 
A|---------------------------------------------------------------------------| 
E|---------------------------------------------------------------------------| 

(0:21-0:24) 
e|---------------------------------------------------------------------------| 
B|-11-16--13-16--13----13-16-18-15-------------------------------------------| 
G|---------------------------------------------------------------------------| 
D|---------------------------------------------------------------------------| 
A|---------------------------------------------------------------------------| 
E|---------------------------------------------------------------------------| 

(0:24-0:29) 
e|-------------------------15-17-18--18-15--15-15-15-13----------------------| 
B|-15-16-18-15--16-18--18----------------------------------------------------| 
G|---------------------------------------------------------------------------| 
D|---------------------------------------------------------------------------| 
A|---------------------------------------------------------------------------| 
E|---------------------------------------------------------------------------| 

(0:29-0:33) 
e|-18----15--15-13--13-15----/18----15--15-13--13-15-------------------------| 
B|---------------------------------------------------------------------------| 
G|---------------------------------------------------------------------------| 
D|---------------------------------------------------------------------------| 
A|---------------------------------------------------------------------------| 
E|---------------------------------------------------------------------------| 

(0:33-0:36) 
e|-/18----15--15-13--13-15---------------------------------------------------| 
B|----------------------------13----11---------------------------------------| 
G|---------------------------------------------------------------------------| 
D|---------------------------------------------------------------------------| 
A|---------------------------------------------------------------------------| 
E|---------------------------------------------------------------------------| 

(0:36-0:41) 
e|---------------------------------------------------------------------------| 
B|-13----16----13----11----13----16------------------------------------------| 
G|---------------------------------------------------------------------------| 
D|---------------------------------------------------------------------------| 
A|---------------------------------------------------------------------------| 
E|---------------------------------------------------------------------------| 

(0:41-0:45)(The last two notes go along with Caillou when he says, "That's me!") 
e|-------17-18--18-15--13-11------11-----------------------------------------| 
B|-16-18----------------------11---------------------------------------------| 
G|---------------------------------------------------------------------------| 
D|---------------------------------------------------------------------------| 
A|---------------------------------------------------------------------------| 
E|---------------------------------------------------------------------------| 


************************************ 

| /   slide up 
| \   slide down 
| x   Mute note 

************************************ 
	  

auto scroll beats size up size down change color hide chords drawings
tab show chords e-chords YouTube Clip e-chords hide all tabs e-chords go to top tab

share with facebook

Search Paypal