Naruto

home > Naruto

Sadness And Sorrow Tab

Naruto

Difficulty: BeginnerBeginner

by kikaerica

tuner correct add songbook print version text version save to e-mail
chordsukulelecavacokeyboardtabbassdrumsharmonicsflute Guitar Pro
chords

Sadness And Sorrow

	  
E|--2-------0------------------------------------0-5-5-----7-----------------------------|  
B|------0-------0--------0---3-------3-------------------4---4---7-----------------------|  
G|----0---0---0---0----0---0-----0-------2---5---------4-------4-----4-------------------|  
D|-----------------------------0---0---2---2---2-----4-------------4---4-----------------|  
A|-------------------------------------------0-------------------------------------------|  
E|--0----------------2---------------0---------------------------------------------------|  

                             ^        ^				       ^  
E|--0---3-2----------3-2------2p0------0---0-3-5---0------------3-------2-3-5------------|  
B|--0--------3---0--------0---0---0----3----------------------------3---3-5-7------------|  
G|----0------------0----------0--------0---------0-----2----------2---2-------7----------|  
D|---------------2-----------------------------------------2----0-------0----------------|  
A|----------------------------------2----------3-----3---3---3---------------------------|  
E|--0------------0------------0----------------------------------------------------------|  


                      ^       ^				        ^  
E|--7---------5---2----2p0-----0--0-3--5---0------------3--------2-3-5-------------------|  
B|-------0-------------0---0---3---------------3---1--------3----3-5-7-------------------|  
G|-----0---0----2---2--0-------0---------0---0---0---0----0---0--------7-----------------|  
D|------------0-----------------------------------------0--------0-----------------------|  
A|---------------------------2---------3-------------------------------------------------|  
E|--3------------------0-----------------------------------------------------------------|  


   ^             ^			             ^  
E|--0----3-2------------3-2----0-2-3-5-7-0-3-2--------2p0-------0--------3-5-3-2-----7---|  
B|--0---------3---0------------------------------3--------0---------0--------0-------8---|  
G|----0--------------0---------0---------0-----2------0-----0-----0---0------------7-7---|  
D|----------------2--------------------------0---4--------------4---2------------0-------|  
A|---------------------------2-------3-----------------------------------3---------------|  
E|--0-------------0-----------------------------------0----------------------------------|  


				     ^  
E|--7--------5--------5-7-0-3-2-------2p0-------0--------3-5-3-2---------0---------------|  
B|------0--------3----------------3-------0---------0--------0-------0--------1----------|  
G|--------0----2----------0-----2-----0-----0-----0---0--------------0--------2----------|  
D|----0------0-----0----------0---4-------------4---2--------------4--------2------------|  
A|--------------------3----------------------------------3-------2-------0---------------|  
E|--3---------------------------------0--------------------------------------------------|  


E|----0-0---0-0--0-0--0-0--0-0--0-0------------------------------------------------------|  
B|-----------------------------------3-3--3-3--3-3--3-3--3-3--3-3------------------------|  
G|-------------2--------------------------------------------------2---2------------------|  
D|--------2---------2--------------2-------------------2---------------------------------|  
A|--0-------------------------2---------2---------2---------2-----0---0------------------|  
E|-----------------------0-------------------0-------------------------------------------|  

			     ^    ^  
E|--0----10-10--12-10-12--10-10----------0-----------------------------------7-----------|  
B|----10----------------------0---10--8---------------------8--------8----8----10---8----|  
G|---------------------------------0--------7----7----7-9----------9---9-----------------|  
D|---------------------------------------------9---9-------10---7------------------------|  
A|--------0---------0---------------------------------------0-------------7--------------|  
E|----------------------------0----0--------7-------------------------------------8------|  


   ^                         ^  
E|-----------------------------------------------------------------0-0-------------------|  
B|--8----------------------8---------------------------------------0-0-------------------|  
G|--0--9-7-------------7-9------------7-7-----9--9--------7-7------0-0-------------------|  
D|---------------5-7-9-------10-------9-9----10-10---------------------------------------|  
A|------------7---------------0----0------0--------0-------------------------------------|  
E|--0------0-----0-----0------0------------------------0-------0-------7-----------------|  


			      ^				       ^  
E|--5-7-0-3--2------0----------3-5-3-2-----7---7-------5--------5-7-0-3---2-----0--------|  
B|----------------------3-0----------------7----------------3-----------------------3-0--|  
G|-------------2------0--------0-----------7-------0------2-----5-----------2-----0------|  
D|---------0-4------2-------------------0--------0-----0----------------0-4-----2--------|  
A|--3--------------------------3------2-------------------------3------------------------|  
E|---------------------------------------------3-----------------------------------------|  


   ^              ^               ^  
E|--3-5-3-2--------0-------------0-8---------------------0------------10-----------------|  
B|-------------0---1---------1-3---8-----------------0-------7---8-----------------------|  
G|--0--------------0-------0-------9---------------0---7---------------------------------|  
D|-----------0-4---------2---------------------2s4---------------------------------------|  
A|--3------2-----------3---------------------2-------------------------------------------|  
E|-------------------3---------------------0---------------------------------------------|   

	  

there isn't a video lesson for this song

request
Search
auto scroll beats size up size down change color hide chords drawings
tab show chords e-chords YouTube Clip e-chords hide all tabs e-chords go to top tab