Misc Cartoons

home > Misc Cartoons

Naruto - The Raising Fighting Spirit Tab

Misc Cartoons

Difficulty: AdvancedAdvanced

by gustsilva

tuner correct add songbook print version text version save to e-mail
chordsukulelecavacokeyboardtabbassdrumsharmonicsflute Guitar Pro
chords

Naruto - The Raising Fighting Spirit

  		
Riff 1 

e|---------------------------------------------| 
B|---------------------------------------------| 
G|-----------------------------------7---------| 
D|-----------------------------------7--7------| 
A|------------2-0---0----------------5--7------| 
E|--0-0-3-2-0-----3---3-2-0-0-3-2-0-----5------| (2x) 

e|-----------------------------------------| 
B|-----------------------------------------| 
G|--------------------------5-5---4-4------| 
D|--------------------------5-5---4-4------| 
A|------------2-0---0-------3-3---2-2------| 
E|--0-0-3-2-0-----3---3-2------------------| 

Riff 2  

e|----------------------------------| 
B|----------------------------------| 
G|-9-9-9-9-x-x-x-x 7-7-7-7-x-x-x-x--| 
D|-9-9-9-9-x-x-x-x 7-7-7-7-x-x-x-x--| 
A|-7-7-7-7-x-x-x-x 5-5-5-5-x-x-x-x--| 
E|----------------------------------|(2x) 

e|---------------------------------| 
B|---------------------------------| 
G|-5-5-5-5-x-x-x-x-7-7-7-7-x-x-x-x-| 
D|-5-5-5-5-x-x-x-x-7-7-7-7-x-x-x-x-| 
A|-3-3-3-3-x-x-x-x-5-5-5-5-x-x-x-x-| 
E|---------------------------------|(2x) 

e|-----------------------------------------| 
B|-----------------------------------------| 
G|--------------------------5-5---4-4------| 
D|--------------------------5-5---4-4------| 
A|------------2-0---0-------3-3---2-2------| 
E|--0-0-3-2-0-----3---3-2------------------| 

Riff 3 

e|--------------------------------------------------------------| 
B|--------------------------------------------------------------| 
G|-5-5-5-5-x-x-x-x--4-4-x-x-x-x---------------------------------| 
D|-5-5-5-5-x-x-x-x--2-2-x-x-x-x--2-4-5-6-2-4-5-6-7-x-x-x-x------| 
A|-3-3-3-3-x-x-x-x--2-2-x-x-x-x--2-4-5-6-2-4-5-6-7-x-x-x-x------| 
E|-------------------------------0-2-3-4-0-2-3-4-5-x-x-x-x------| 
  

e|------------------------------------------------------| 
B|------------------------------------------------------| 
G|--4-4-x-x-x-x--5-5-x-x-x-x--7--7---7-7----------------| 
D|--4-4-x-x-x-x--5-5-x-x-x-x--7--7---7-7----------------| 
A|--2-2-x-x-x-x--3-3-x-x-x-x--5--5---5-5----------------| 
E|------------------------------------------------------| 

Riff 4 

e|------------------------------------------------------| 
B|------------------------------------------------------| 
G|---------------------5-------7---4--------------------| 
D|-2---4---5-x-x-x-x---5---5---7---4--------------------| 
A|-2---4---5-x-x-x-x---3---5---5---2--------------------| 
E|-0---2---3-x-x-x-x-------3----------------------------| 
  
e|------------------------------------------------------| 
B|------------------------------------------------------| 
G|---------------------5---7---9--9---9-9---------------| 
D|-2---4---5-x-x-x-x---5---7---9--9---9-9---------------| 
A|-2---4---5-x-x-x-x---3---5---7--7---7-7---------------| 
E|-0---2---3-x-x-x-x------------------------------------| 
	  

Search Paypal
auto scroll beats size up size down change color hide chords drawings
tab show chords e-chords YouTube Clip e-chords hide all tabs e-chords go to top tab