Misc Cartoons

home > Misc Cartoons

Naruto Shippuden - Companions Tab

Misc Cartoons

Difficulty: nolevelnolevel

by educastilho

tuner correct add songbook print version text version save to e-mail
chordsukulelecavacokeyboardtabbassdrumsharmonicsflute Guitar Pro
chords

Naruto Shippuden - Companions

  		
 



 INTRO 
e|-----------------|-----------------|-----------------|-----------------| 
B|-----0---2-------|-----3---2-------|-----0---2-------|-----3---2-------| 
G|-----------------|-----------------|---------2---1---|-----------------| 
D|---2---2---------|---2---2---------|---2---2---------|---2---2---------| 
A|-0---------------|-0---------------|-0---------------|-0---------------| 
E|-----------------|-----------------|-----------------|-----------------| 
   1 + 2 + 3 + 4 +   1 + 2 + 3 + 4 +   1 + 2 + 3 + 4 +   1 + 2 + 3 + 4 + 
   A ------>                                                       <----- 

  A 
e|-----------------|------------------|-----------------|------------------| 
B|-2----------^3---|-^0---------------|------------^0---|-^2-----2---------| 
G|-----2------|2---|-|1----------^2---|-2----------|1---|-|2---------------| 
D|---2---2----|2---|-|2---2------|2---|---0-4-0----|2---|-|2---2-----------| 
A|-0----------|0---|-|2-2---2----|0---|------------|x---|-|0-0-------------| 
E|-----------------|-|0---------------|-2----------|4---|------------------| 
   1 + 2 + 3 + 4 +    1 + 2 + 3 + 4 +   1 + 2 + 3 + 4 +    1 + 2 + 3 + 4 + 
   A                  E                 D/F#       E/G#    A 


                                      B 
e|-------------0---|-2---------------|-----------------|------------------| 
B|-2-------2-------|-------------3---|-2-------2--^3---|-^0---------------| 
G|-------2---------|---------2-------|-----2------|2---|-|1-------1-------| 
D|-----4-----------|-0---0-4-----4---|---2---2----|2---|-|2---2-------2---| 
A|---4-------------|---0-------------|-0----------|0---|-|2-2---2---2---2-| 
E|-2---------------|-----------------|-----------------|-|0---------------| 
   1 + 2 + 3 + 4 +   1 + 2 + 3 + 4 +   1 + 2 + 3 + 4 +    1 + 2 + 3 + 4 + 
   F#m               D/A               A                  E 

e|-2-------4---2---|-0-----------------|-------------0---|-------5-4-0-----| 
B|-----------------|---------2-----0h2-|-0---------------|-2-----------2-0-| 
G|---------4-------|-------------------|-----4---2-------|-----2-----------| 
D|-0---4-0---0-4---|-----2-------------|---4-------4---4-|---2-------------| 
A|---0-------------|-4-----4-----4-----|-2-----2-2-------|-0---------------| 
E|-----------------|---4---------------|-----------------|-----------------| 
   1 + 2 + 3 + 4 +   1 + 2 + 3 + 4 +     1 + 2 + 3 + 4 +   1 + 2 + 3 + 4 + 
   D                 C#m                 Bm                A 

e|-2-------4---2---|-0-------9---0---|-5---4---2-----5-|-5-------4-------| 
B|-----------------|-----------9---2-|-----------------|-----------------| 
G|---------4-------|-----------------|-----------------|-----------------| 
D|-0---4-0---0-4---|-----2-----------|-----4-------4---|-----6-------6---| 
A|---0-------------|-4-----4---------|-5-------5-------|---7---7---7-----| 
E|-----------------|---4-------------|---5-------5-----|-0-------0-------| 
   1 + 2 + 3 + 4 +   1 + 2 + 3 + 4 +   1 + 2 + 3 + 4 +   1 + 2 + 3 + 4 + 
   D                 C#m               D                 E 

C 
e|-----------------|------------------|-----------------|--------5-4-5-4-0-| 
B|-2----------^3---|-^0---------------|------------^0---|-^2---------------| 
G|-----2---2--|2---|-|1----------^2---|-2----------|1---|-|2---------------| 
D|---2---2----|2---|-|2---2------|2---|---0-4-0----|2---|-|2---2-----------| 
A|-0----------|0---|-|2-2---2----|0---|------------|x---|-|0-0-------------| 
E|-----------------|-|0---------------|-2----------|4---|------------------| 
   1 + 2 + 3 + 4 +    1 + 2 + 3 + 4 +   1 + 2 + 3 + 4 +    1 + 2 + 3 + 4 + 
   A                  E                 D/F#       E/G#    A 

                                      D 
e|-------------0---|-2---------------|-----------------|------------------| 
B|-2---------------|-----------------|-2-------2--^3---|-^0---------------| 
G|---------2-------|---------2-------|-----2------|2---|-|1-------1-------| 
D|-----4-----4-----|-0---0-4---0-4-0-|---2---2----|2---|-|2---2-----------| 
A|---4---2---------|---0-------------|-0----------|0---|-|2-2---2---------| 
E|-2---------------|-----------------|-----------------|-|0---------------| 
   1 + 2 + 3 + 4 +   1 + 2 + 3 + 4 +   1 + 2 + 3 + 4 +    1 + 2 + 3 + 4 + 
   F#m               D/A               A                  E 

        rit. 
e|-5---------------|------------------| 
B|---------2---0---|-^2---------------| 
G|-----2-----------|-|2---------------| 
D|---2---2---2---2-|-|2---------------| 
A|-0---------------|-|0---------------| 
E|-----------------|------------------| 
   1 + 2 + 3 + 4 +    1 + 2 + 3 + 4 + 


************************************ 


| h   hammer-on 
| x   Mute note 


| ^ 
| |   strum in the direction of the strings 
| | 

| x rehearsal mark 

************************************ 
	  

Full key step upFull key step up
Half key step upHalf key step up
Half key step downHalf key step down
Full key step downFull key step down
Search Paypal
auto scroll beats size up size down change color hide chords drawings
tab show chords e-chords YouTube Clip e-chords hide all tabs e-chords go to top tab