Misc Cartoons

home > Misc Cartoons

Aberutra Tab

Misc Cartoons

Difficulty: nolevelnolevel

by gustsilva

tuner correct add songbook print version text version save to e-mail
chordsukulelecavacokeyboardtabbassdrumsharmonicsflute Guitar Pro
chords

Aberutra

  		E|-----------------------------| 
B|-3-3-3-3-3-------3-3-3-------| 
G|-----------5-3---------5-3-5-| 
D|---------------5-------------| 
A|-----------------------------| 
E|-----------------------------| 
 

Parte II 
 
E|-----------------------------| 
B|-4-4-4-4-6-3------3-3----3---| 
G|-------------5-3-3----5-3----| 
D|-----------------------------| 
A|-----------------------------| 
E|-----------------------------| 
 
Parte III 
 
E|-----------------------------| 
B|-3-3-3-3-3----3-3-3----------| 
G|-----------5-3------5-3-3----| 
D|-----------------------------| 
A|-----------------------------| 
E|------------------------------| 
 

Parte IV 
 
E|-----------------------------| 
B|-4-4-4-4-4-4-6-3----3-3----3-| 
G|-----------------5-3----5-3--| 
D|-----------------------------| 
A|-----------------------------| 
E|-----------------------------| 
 
Parte V 
 
E|-----3------3-3--------------| 
B|--3-6--3-3-6---6-3-----------| 
G|-------------------5-3-------| 
D|-----------------------------| 
A|-----------------------------| 
E|-----------------------------| 
 

Parte VI 
 
E|-3-3-5-6-5-3-----------------| 
B|-------------6---------------| 
G|-----------------------------| 
D|-----------------------------| 
A|-----------------------------| 
E|-----------------------------| 
 

Parte VII  
 
E|-----3-3---3----------------| 
B|-3-6----6-3-6-3------3-3---3| 
G|----------------5-3-3---5-3-| 
D|----------------------------| 
A|----------------------------| 
E|----------------------------| 
 
Repete parte V e VI 
Parte VIII 
 
E|---6-6-6---6-6-6-6-6-5------| 
B|-4-------6------------------| 
G|----------------------------| 
D|----------------------------| 
A|----------------------------| 
E|----------------------------| 
 
Parte 
 
E|-------3-3--------3-6-3---3-| 
B|-3-3-6-----4-4-4-6-----3-6--| 
G|----------------------------| 
D|----------------------------| 
A|----------------------------| 
E|----------------------------| 
	  

Search Paypal
auto scroll beats size up size down change color hide chords drawings
tab show chords e-chords YouTube Clip e-chords hide all tabs e-chords go to top tab