Misc Cartoons

home > Misc Cartoons

Pink Panther Theme Song Tab

Misc Cartoons

Difficulty: EasyEasy

by lucicamargo

tuner correct add songbook print version text version save to e-mail
chordsukulelecavacokeyboardtabbassdrumsharmonicsflute Guitar Pro
chords

Pink Panther Theme Song

  		The other ones are great but they didn't have the end sounds so i tried playing it by ear and this is what I've got. 



e|---------------| 
B|---------------| 
G|---------------|  x2 
D|---------------| 
A|-4/5-6/7----7--| 
E|----------7----| 

e|------------------------------------------------| 
B|------------------------------------------------| 
G|-----------------------5p4-----4h3--2-1---------| 
D|----------4h5------4h5-----4h5----------2-1-2---| 
A|-4/5-6/7-------6h7------------------------------| 
E|------------------------------------------------| 

e|-----------------------------------------------| 
B|-----------------------------------------------| 
G|-----------------------5p4----5-4~-4/4/4--3h4--| 
D|----------4h5------4h5------4------------------| 
A|-4/5-6/7-------6h7--------5--------------------| 
E|-----------------------------------------------| 

e|-----------------------------------------------| 
B|-----------------------------------------------| 
G|-9-7-------------------------------------------| 
D|-----9-7-5---8p7-8p7-8p7-8p7-5-----------------| 
A|-----------7-------------------7-5-7-----------| 
E|-----------------------------------------------| 
	  

Search Paypal
auto scroll beats size up size down change color hide chords drawings
tab show chords e-chords YouTube Clip e-chords hide all tabs e-chords go to top tab