Kvelertak

Sultans Of Satan

Kvelertak

tabs

by  CARLLUZ

save to print version add songbook text version e-mail correct tuner
chordsukulelecavacokeyboardtabbassdrumsharmonicaflute Guitar Pro
close

there isn't a video lesson for this song

chords

Sultans Of Satan

	  		
Verse 

e|---------------------------------|---------------------------------| 
B|---------------------------------|---------------------------------| 
G|-4-4-4-4-4-4-5-5---------7-7-7-5-|-4-4-4-4-4-4-5-5-----------------| 
D|-4-4-4-4-4-4-5-5-5-5-5-5-7-7-7-5-|-4-4-4-4-4-4-5-5-2-2-2-2-5-5-5-7-| 
A|-2-2-2-2-2-2-3-3-5-5-5-5-5-5-5-3-|-2-2-2-2-2-2-3-3-2-2-2-2-5-5-5-7-| 
E|-----------------3-3-3-3---------|-----------------0-0-0-0-3-3-3-5-| x3 

e|---------------------------------|-----------------------------| 
B|---------------------------------|-----------------------------| 
G|-4-4-4-4-4-4-5-5---------7-7-7-5-|-4-4-4-4-4-4-5-5-7-7-7-7-7---| 
D|-4-4-4-4-4-4-5-5-5-5-5-5-7-7-7-5-|-4-4-4-4-4-4-5-5-7-7-7-7-7---| 
A|-2-2-2-2-2-2-3-3-5-5-5-5-5-5-5-3-|-2-2-2-2-2-2-3-3-5-5-5-5-5---| 
E|-----------------3-3-3-3---------|-----------------------------| 


Chorus 

1. Guitar 

e|-----------------------------------------------------------| 
B|-----------------------------------------------------------| 
G|-9-9-7-5-7-----9-9-7-5-7-----9-9-7-5-7---------5-----------| 
D|-9-9-7-5-7-7---9-9-7-5-7-7---9-9-7-5-7-7---7-5-5---5-5-7-7-| 
A|-7-7-5-3-5-7---7-7-5-3-5-7---7-7-5-3-5-7---7-5-3---5-5-7-7-| 
E|-----------5-------------5-------------5---5-3-----3-3-5-5-| x2 

e|-----------------------------------------------------------| 
B|-----------------------------------------------------------| 
G|-----------------------------------------------5-----------| 
D|-2-2-5-5-7-7---2-2-5-5-7-7---2-2-5-5-7-7---7-5-5---5-5-7-7-| 
A|-2-2-5-5-7-7---2-2-5-5-7-7---2-2-5-5-7-7---7-5-3---5-5-7-7-| 
E|-0-0-3-3-5-5---0-0-3-3-5-5---0-0-3-3-5-5---5-3-----3-3-5-5-| x2 

2. Guitar 

e|------------------|    |----------------|  
B|------------------|    |----------------|  
G|-12-12-11-9-11-9--|    |-9-7-7--7-7-7-7-|  
D|-x--x--x--x-x--x--|    |-x-x-x--x-x-x-x-|  
A|-10-10-9--7-9--7--|    |-7-5-5--5-5-5-5-|  
E|------------------| x3 |----------------|  


Verse 

e|---------------------------------|---------------------------------| 
B|---------------------------------|---------------------------------| 
G|-4-4-4-4-4-4-5-5---------7-7-7-5-|-4-4-4-4-4-4-5-5-----------------| 
D|-4-4-4-4-4-4-5-5-5-5-5-5-7-7-7-5-|-4-4-4-4-4-4-5-5-2-2-2-2-5-5-5-7-| 
A|-2-2-2-2-2-2-3-3-5-5-5-5-5-5-5-3-|-2-2-2-2-2-2-3-3-2-2-2-2-5-5-5-7-| 
E|-----------------3-3-3-3---------|-----------------0-0-0-0-3-3-3-5-| x3 

e|---------------------------------|-----------------------------| 
B|---------------------------------|-----------------------------| 
G|-4-4-4-4-4-4-5-5---------7-7-7-5-|-4-4-4-4-4-4-5-5-7-7-7-7-7---| 
D|-4-4-4-4-4-4-5-5-5-5-5-5-7-7-7-5-|-4-4-4-4-4-4-5-5-7-7-7-7-7---| 
A|-2-2-2-2-2-2-3-3-5-5-5-5-5-5-5-3-|-2-2-2-2-2-2-3-3-5-5-5-5-5---| 
E|-----------------3-3-3-3---------|-----------------------------| 


Chorus 

1. Guitar 
e|-----------------------------------------------------------| 
B|-----------------------------------------------------------| 
G|-9-9-7-5-7-----9-9-7-5-7-----9-9-7-5-7---------5-----------| 
D|-9-9-7-5-7-7---9-9-7-5-7-7---9-9-7-5-7-7---7-5-5---5-5-7-7-| 
A|-7-7-5-3-5-7---7-7-5-3-5-7---7-7-5-3-5-7---7-5-3---5-5-7-7-| 
E|-----------5-------------5-------------5---5-3-----3-3-5-5-| x2 

e|-----------------------------------------------------------| 
B|-----------------------------------------------------------| 
G|-----------------------------------------------5-----------| 
D|-2-2-5-5-7-7---2-2-5-5-7-7---2-2-5-5-7-7---7-5-5---5-5-7-7-| 
A|-2-2-5-5-7-7---2-2-5-5-7-7---2-2-5-5-7-7---7-5-3---5-5-7-7-| 
E|-0-0-3-3-5-5---0-0-3-3-5-5---0-0-3-3-5-5---5-3-----3-3-5-5-| x2 

2. Guitar 

e|------------------|    |----------------|  
B|------------------|    |----------------|  
G|-12-12-11-9-11-9--|    |-9-7-7--7-7-7-7-|  
D|-x--x--x--x-x--x--|    |-x-x-x--x-x-x-x-|  
A|-10-10-9--7-9--7--|    |-7-5-5--5-5-5-5-|  
E|------------------| x3 |----------------|  


Break 
Guitar 1 
e|----| 
B|-12-| 
G|-9--| 
D|----| 
A|----| 
E|----| 

Guitar 2 
e|-------------------------------------------------------------------------| 
B|-------------------------------------------------------------------------| 
G|-----------------------------------------9-9-9-9-9-9-9-9-7-7-7-7-7-7-7-7-| 
D|-10-10-10-10-10-10-10-10-9-9-9-9-9-9-9-9---------------------------------| 
A|-------------------------------------------------------------------------| 
E|-------------------------------------------------------------------------| x3 

e|-----------------------------------------|-----------| 
B|-----------------------------------------|-----------| 
G|-----------------------------------------|-----------| 
D|-10-10-10-10-10-10-10-10-9-9-9-9-9-9-9-9-|-7----5--4-| 
A|-----------------------------------------|-7----5--4-| 
E|-----------------------------------------|-5----3--2-| 


e|----------------------------------------|------------------------------------------| 
B|----------------------------------------|------------------------------------------| 
G|----9--9-----9--9-----9--9-----7------7-|----9--9-----9--9-----9--9-----7--7h9p7---| 
D|----9--9-----9--9-----9--9-7-9----7-9---|----9--9-----9--9-----9--9-7-9----------7-| 
A|----7--7-----7--7-----7--7--------------|----7--7-----7--7-----7--7----------------| 
E|-0-------0-0------0-0-------------------|-0-------0-0------0-0---------------------| 

e|----------------------------------------|------------------------------------------| 
B|----8--8-----8--8-----8--8--------------|----8--8-----8--8-----8--8----------------| 
G|----7--7-----7--7-----7--7-----7----9-7-|----7--7-----7--7-----7--7-----7--7h9p7---| 
D|----5--5-----5--5-----5--5-7-9----7-----|----5--5-----5--5-----5--5-7-9----------7-| 
A|----------------------------------------|------------------------------------------| 
E|-0-------0-0------0-0-------------------|-0-------0-0------0-0---------------------| 

e|----------------------------------------|---------------| 
B|----8--8-----8--8-----8--8--------------|----8--8-----8-| 
G|----7--7-----7--7-----7--7-----7------7-|----7--7-----7-| 
D|----5--5-----5--5-----5--5-7-9----7-9---|----5--5-----5-| 
A|----------------------------------------|---------------| 
E|-0-------0-0------0-0-------------------|-0-------0-0---| 



e|-----------------------------------------------------| 
B|-----------------------------------------------------| 
G|-9---------------------------------------------------| 
D|-9-----------5----------7-5-------7b-5-7-5---5-7-5---| 
A|-7------5-7----7---5-7-------5-7-----------7-------7-| 
E|----0-0----------------------------------------------| 
pm     * * 

e|--------------------------------------------------| 
B|--------------------------------------------------| 
G|--------------------------------------------------| 
D|----------5----------7-5-------7b-5-7-5-7/9--7-5--| 
A|-----5-7----7---5-7-------5-7---------------------| 
E|-0-0----------------------------------------------| 
pm     * * 

Solo 
1.Guitar 
e|---------------------------------------------------------------------------------| 
B|-----------8------------10--8-------8-10/12-10--8--10--8--------8--10--8h10p8----| 
G|-9---7--9-----9---7--9----------7-9-----------------------7--9-----------------9-| 
D|---------------------------------------------------------------------------------| 
A|---------------------------------------------------------------------------------| 
E|---------------------------------------------------------------------------------| 

e|-------------------------------------------| 
B|--------8-----------8-10/12-10--10p8h10----| 
G|-7--9-------9---7-9------------------------| 
D|-------------------------------------------| 
A|-------------------------------------------| 
E|-------------------------------------------| 

2.Guitar 
e|-----------------------|--------------| 
B|-----------------------|--------------| 
G|-5-----7----------7----|-5-----7------| 
D|-5-----7----7-----7----|-5-----7------| 
A|-3-x14-5-x2-7-----5-x2-|-3-x16-5-x16--| 
E|------------5-x14------|--------------| 


Pre-Chorus 
e|-----------------------------------------------------------| 
B|-----------------------------------------------------------| 
G|-----------------------------------------------------------| 
D|-2------2-2--2--2-----2-2--2--2-----2-2--2--2--------------| 
A|-2------2-2--2--2-----2-2--2--2-----2-2--2--2---------5-2--| 
E|-0--0-0-0-0--0--0-0-0-0-0--0--0-0-0-0-0--0--0---0-2-3------| 
pm     * *           * *           * * 

e|------------------------------------------------------| 
B|------------------------------------------------------| 
G|------------------------------------------------------| 
D|-----2-2--2--2-----2-2--2--2-----2-2--2--2------------| 
A|-----2-2--2--2-----2-2--2--2-----2-2--2--2---------5--| 
E|-0-0-0-0--0--0-0-0-0-0--0--0-0-0-0-0--0--0---0-2-3----| 
pm  * *           * *           * * 

e|--------------|---------------| 
B|--------------|---------------| 
G|-5------6-----|-5------7------| 
D|-5------6-----|-5------7------| 
A|-3-x15--4-x17-|-3-x16--5-x29--| 
E|--------------|---------------| 


Chorus 
e|-----------------------------------------------------------| 
B|-----------------------------------------------------------| 
G|-9-9-7-5-7-----9-9-7-5-7-----9-9-7-5-7---------5-----------| 
D|-9-9-7-5-7-7---9-9-7-5-7-7---9-9-7-5-7-7---7-5-5---5-5-7-7-| 
A|-7-7-5-3-5-7---7-7-5-3-5-7---7-7-5-3-5-7---7-5-3---5-5-7-7-| 
E|-----------5-------------5-------------5---5-3-----3-3-5-5-| x4 

e|-----------------------------------------------------------| 
B|-----------------------------------------------------------| 
G|-----------------------------------------------5-----------| 
D|-2-2-5-5-7-7---2-2-5-5-7-7---2-2-5-5-7-7---7-5-5---5-5-7-7-| 
A|-2-2-5-5-7-7---2-2-5-5-7-7---2-2-5-5-7-7---7-5-3---5-5-7-7-| 
E|-0-0-3-3-5-5---0-0-3-3-5-5---0-0-3-3-5-5---5-3-----3-3-5-5-| 

e|-----------------------------------------------------------| 
B|-----------------------------------------------------------| 
G|-----------------------------------------------5-----------| 
D|-----5-5-7-7---2-2-5-5-7-7---2-2-5-5-7-7---7-5-5---5-5-7-7-| 
A|-----5-5-7-7---2-2-5-5-7-7---2-2-5-5-7-7---7-5-3---5-5-7-7-| 
E|-----3-3-5-5---0-0-3-3-5-5---0-0-3-3-5-5---5-3-----3-3-5-5-| 

end with 
e|--7--| 
B|--7--| 
G|--7--| 
D|--9--| 
A|--9--| 
E|--7--| 
		  

See also:

tabs M2M - Jennifer tabs Kvelertak - Bruane Brenn tabs M2M - Wanna Be Where You Are tabs Audrey Horne - Show And Tell tabs Kvelertak - Ondskapens Galakse tabs M2M - Don't
e-chords

Other versions:

tabs Kvelertak - Sultans Of Satan
auto scroll beats size up size down change color hide chords drawings
tab show chords e-chords YouTube Clip e-chords hide all tabs e-chords go to top tab

share