Kvelertak

Fossegrim

Kvelertak

tabs Advanced advanced

by  UBIRBOMFIM

save to print version add songbook text version e-mail correct tuner
chordsukulelecavacokeyboardtabbassdrumsharmonicaflute Guitar Pro
close

there isn't a video lesson for this song

chords

Fossegrim

	  		

Verse 

e||---------------------------------|-------------------------| 
B||---------------------------------|-------------------------| 
G||---------------------------------|-------------------------| 
D||---------------------------------|-------------------0-8---| 
A||----5-----5---5/8--8\7--7\4--4/5-|----5-----5--5/8-8-0-8---| 
D||-0-----0-------------------------|-0-----0-----------0-8---| 

last time 

e||---------------------------------|-------------------------------------------| 
B||---------------------------------|-------------------------------------------| 
G||---------------------------------|-------------------------------------------| 
D||---------------------------------|-------------------0-8-8-8-8-8-8-8-8-8-8-8-| 
A||----5-----5---5/8--8\7--7\4--4/5-|----5-----5--5/8-8-0-8-8-8-8-8-8-8-8-8-8-8-| 
D||-0-----0-------------------------|-0-----0-----------0-8-8-8-8-8-8-8-8-8-8-8-| 

e||---------------8----| 
B||-10-10-10-8------10-| 
G||------------10------| 
D||--------------------| 
A||--------------------| 
D||--------------------| 



Chorus x2 

e||----------------------------------|----------------------------| 
B||----------------------------------|----------------------------| 
G||--------------------7-9-9-5--7--7-|--------------------7-9-9-5-| 
D||-0--0-0-0-0-0-0-0-0-7-9-9-5--7--7-|-0--0-0-0-0-0-0-0-0-7-9-9-5-| 
A||-0--0-0-0-0-0-0-0-0-5-7-7-3--5--5-|-0--0-0-0-0-0-0-0-0-5-7-7-3-| 
D||-0--0-0-0-0-0-0-0-0---------------|-0--0-0-0-0-0-0-0-0---------| 
pm     * * * * * * * *                    * * * * * * * * 

e||-----------------------------| 
B||-----------------------------| 
G||-----------------------------| 
D||-8--8-8-8-8-8-8-10--10--5--5-| 
A||-8--8-108-8-108-12--10--5--5-| 
D||-8--8-8-8-8-8-8-10--10--5--5-|  


e||----------------------------------|----------------------------| 
B||----------------------------------|----------------------------| 
G||--------------------7-9-9-5--7--7-|--------------------7-9-9-5-| 
D||-0--0-0-0-0-0-0-0-0-7-9-9-5--7--7-|-0--0-0-0-0-0-0-0-0-7-9-9-5-| 
A||-0--0-0-0-0-0-0-0-0-5-7-7-3--5--5-|-0--0-0-0-0-0-0-0-0-5-7-7-3-| 
D||-0--0-0-0-0-0-0-0-0---------------|-0--0-0-0-0-0-0-0-0---------| 

e||-----------------------------| 
B||-----------------------------| 
G||-----------------------------| 
D||-8--8-8-8-8-8-8-10--10--5--5-| 
A||-8--8-108-8-108-12--10--5--5-| 
D||-8--8-8-8-8-8-8-10--10--5--5-| 


Break 

e||-------------------------|-------------------------| 
B||-------------------------|-------------------------| 
G||-------------------------|-------------------------| 
D||-------------------------|----3-----3-----3----2-3-| 
A||----5-----5-----5----3-5-|----5-----5-----5----3-5-| 
D||-0-----0-----0-----0-----|-0-----0-----0-----0-----| 

e||-------------------------|---------------------------| 
B||-------------------------|-----------------6-8-6h8p6-| 
G||-------------------------|----7-----7--5-7-----------| 
D||----7-----7-----7----5-7-|---------------------------| 
A||----5-----5-----5----3-5-|----5-----5----------------| 
E||-0-----0-----0-----0-----|-0-----0-------------------| 


Verse 

e||---------------------------------|--------------------------| 
B||---------------------------------|--------------------------| 
G||----7-----7---7-10-109--9-6--6-7-|----7-----7--7-1010-------| 
D||-0--7--0--7---7-10-109--9-6--6-7-|-0--7--0--7--7-1010-0-8---| 
A||-0--5--0--5---5/8--8\7--7\4--4/5-|-0--5--0--5--5/8-8--0-8---| 
D||-0-----0-------------------------|-0-----0------------0-8---| x3 
  
e||---------------------------------|----------------------| 
B||---------------------------------|----------------------| 
G||----7-----7---7-10-109--9-6--6-7-|----7-----7--7-1010---| 
D||-0--7--0--7---7-10-109--9-6--6-7-|-0--7--0--7--7-1010-0-| 
A||-0--5--0--5---5/8--8\7--7\4--4/5-|-0--5--0--5--5/8-8--0-| 
D||-0-----0-------------------------|-0-----0------------0-| 


e||-------------------------------------------------| 
B||------------------------10--10--10---------------| 
G||------------------------10--10--10---------------| 
D||-10-10-10-0--0-0--------10--10--10---------------| 
A||-10-10-10-0--0-0--10-12------------10h12p10-8-10-| 
D||-10-10-10-0--0-0---------------------------------| 

e||-----------------------------------------| 
B||-----------------------10-10-10----------| 
G||-----------------------10-10-10----------| 
D||-10-10-10-0--0-0-------10-10-10-12-12-10-| 
A||-10-10-10-0--0-0-10-12-------------------| 
D||-10-10-10-0--0-0-------------------------| 

e||-------------------------------------------------| 
B||----------------------------------13-------------| 
G||------------------------10-12-10-----12b--10-12--| 
D||-10-10-10-0--0-0--10-12--------------------------| 
A||-10-10-10-0--0-0---------------------------------| 
D||-10-10-10-0--0-0---------------------------------| 

e||------------------------------------| 
B||------------------10b---10b----10b--| 
G||------------------10b---10b----10b--| 
D||-10-10-10-0--0-0--10b---10b----10b--| 
A||-10-10-10-0--0-0--------------------| 
D||-10-10-10-0--0-0--------------------| 


Solo 
Guitar 1 

e||--------------------------------------------------------------| 
B||-15---15--15-13-13--13-13-11--11\10--10\8--8\6--6\5--5\3--3\1-| 
G||--------------------------------------------------------------| 
D||--------------------------------------------------------------| 
A||--------------------------------------------------------------| 
D||--------------------------------------------------------------| 

e||------------------------| 
B||---------------13----10-| 
G||-7-----10--12-----------| 
D||------------------------| 
A||------------------------| 
D||------------------------| 

Guitar 2
 
e||---------------------------------|---------------------------------| 
B||---------------------------------|---------------------------------| 
G||---------------------------------|---------------------------------| 
D||-10-10-10-0--0-0-0-0-0-0-0-0-0-0-|-10-10-10-0--0-0-0-0-0-0-0-0-0-0-| 
A||-10-10-10-0--0-0-0-0-0-0-0-0-0-0-|-10-10-10-0--0-0-0-0-0-0-0-0-0-0-| 
D||-10-10-10-0--0-0-0-0-0-0-0-0-0-0-|-10-10-10-0--0-0-0-0-0-0-0-0-0-0-| 
pm              * * * * * * * * * *                   * * * * * * * *  

e||--------------------------------------| 
B||--------------------------------------| 
G||--------------------------------------| 
D||-10-10-10-8--8-8-8-8-8-8-10-10--5--5--| 
A||-10-10-10-8--8-108-8-108-12-10--5--5--| 
D||-10-10-10-8--8-8-8-8-8-8-10-10--5--5--| 

2nd break
 
e||-----------------------------------------------------------------| 
B||-----------------------------------------------------------------| 
G||---------------------------------------------------------7-7-7-7-| 
D||-------------------------6-6-6-6-5-5-5-5-8-8-8-8-7-7-7-7---------| 
A||-5-5-5-5-8-8-8-8-7-7-7-7-----------------------------------------| 
D||-----------------------------------------------------------------| 

e||-----------------------------------------------------------------| 
B||-----------------------------------------------------------------| 
G||-6-6-6-6---------------------------------------------------------| 
D||---------7-7-7-7-8-8-8-8---------5-5-5-5-------------------------| 
A||-------------------------8-8-8-8---------7-7-7-7-8-8-8-8-4-4-4-4-| 
D||-----------------------------------------------------------------| 



e||-------------------------------------------------------------------------------------| 
B||-------------------------------------------------------------------------------------| 
G||-------------------------------------------------------------------------12-12-12-12-| 
D||-12-12-12-12-11-11-11-11-10-10-10-10-9-9-9-9-8-8-8-8-7-7-7-7-10-10-10-10-12-12-12-12-| 
A||-12-12-12-12-11-11-11-11-10-10-10-10-9-9-9-9-8-8-8-8-7-7-7-7-10-10-10-10-10-10-10-10-| 
D||-12-12-12-12-11-11-11-11-10-10-10-10-9-9-9-9-8-8-8-8-7-7-7-7-10-10-10-10-------------| x3 

e||--------------------------------------------------------------------------------------| 
B||--------------------------------------------------------------------------------------| 
G||----------------------------------------------------------------------1010-10-9-7-9-7-| 
D||-12-12-12-12-11-11-11-11-10-10-10-10-9-9-9-9-8-8-8-8-7-7-7-7-10-10-10-----------------| 
A||-12-12-12-12-11-11-11-11-10-10-10-10-9-9-9-9-8-8-8-8-7-7-7-7-10-10-10-----------------| 
D||-12-12-12-12-11-11-11-11-10-10-10-10-9-9-9-9-8-8-8-8-7-7-7-7-10-10-10-----------------| 

Outro
 
e||----------------------------------|----------------------------| 
B||----------------------------------|----------------------------| 
G||--------------------7-9-9-5--7--7-|--------------------7-9-9-5-| 
D||-0--0-0-0-0-0-0-0-0-7-9-9-5--7--7-|-0--0-0-0-0-0-0-0-0-7-9-9-5-| 
A||-0--0-0-0-0-0-0-0-0-5-7-7-3--5--5-|-0--0-0-0-0-0-0-0-0-5-7-7-3-| 
D||-0--0-0-0-0-0-0-0-0---------------|-0--0-0-0-0-0-0-0-0---------| 
pm     * * * * * * * *                    * * * * * * * * 

e||-----------------------------| 
B||-----------------------------| 
G||-----------------------------| 
D||-8--8-8-8-8-8-8-10--10--5--5-| 
A||-8--8-108-8-108-12--10--5--5-| 
D||-8--8-8-8-8-8-8-10--10--5--5-| 


e||----------------------------------|----------------------------| 
B||----------------------------------|----------------------------| 
G||-7------------------7-9-9-5--7--7-|--------------------7-9-9-5-| 
D||-7--0-0-0-0-0-0-0-0-7-9-9-5--7--7-|-0--0-0-0-0-0-0-0-0-7-9-9-5-| 
A||-5--0-0-0-0-0-0-0-0-5-7-7-3--5--5-|-0--0-0-0-0-0-0-0-0-5-7-7-3-| 
D||----0-0-0-0-0-0-0-0---------------|-0--0-0-0-0-0-0-0-0---------| 
pm     * * * * * * * *                    * * * * * * * * 

e||-----------------------------| 
B||-----------------------------| 
G||-----------------------------| 
D||-8--8-8-8-8-8-8-10--10--5--5-| 
A||-8--8-108-8-108-12--10--5--5-| 
D||-8--8-8-8-8-8-8-10--10--5--5-| 

e||----------------------------------|----------------------------| 
B||----------------------------------|----------------------------| 
G||--------------------7-9-9-5--7--7-|--------------------7-9-9-5-| 
D||-0--0-0-0-0-0-0-0-0-7-9-9-5--7--7-|-0--0-0-0-0-0-0-0-0-7-9-9-5-| 
A||-0--0-0-0-0-0-0-0-0-5-7-7-3--5--5-|-0--0-0-0-0-0-0-0-0-5-7-7-3-| 
D||-0--0-0-0-0-0-0-0-0---------------|-0--0-0-0-0-0-0-0-0---------| 

e||-----------------------------| 
B||-----------------------------| 
G||-----------------------------| 
D||-8--8-8-8-8-8-8-10--10--5--5-| 
A||-8--8-108-8-108-12--10--5--5-| 
D||-8--8-8-8-8-8-8-10--10--5--5-| 
		  

See also:

tabs M2M - Jennifer tabs Kvelertak - Bruane Brenn tabs M2M - Wanna Be Where You Are tabs Audrey Horne - Show And Tell tabs Kvelertak - Ondskapens Galakse tabs M2M - Don't
e-chords

Other versions:

tabs Kvelertak - Fossegrim
auto scroll beats size up size down change color hide chords drawings
tab show chords e-chords YouTube Clip e-chords hide all tabs e-chords go to top tab

share