Kvelertak

Offernatt

Kvelertak

tabs Expert expert

by  UBIRBOMFIM

save to print version add songbook text version e-mail correct tuner
chordsukulelecavacokeyboardtabbassdrumsharmonicaflute Guitar Pro
close

there isn't a video lesson for this song

chords

Offernatt

	  		

Intro 

e||-10-10-10-10-10-10-10-10-10-10-10-10-10-10-10-10-| 
B||-------------9--9--9--9--9--9--9--9--9--9--9--9--| 
G||-------------------------7--7--7--7--7--7--7--7--| 
D||----------------------------------6--6--6--6--6--| 
A||-------------------------------------------------| 
D||-------------------------------------------------| 

e||-------------------------------------------------------------------------| 
B||-------------------------------------------------------------------------| 
G||-7-7-7-7-7-7-7-7-7-7-7-7-7-7-7-7-----------------10-10-10-10-10-12-12-12-| 
D||-7-7-7-7-7-7-7-7-7-7-7-7-7-7-7-7-8-8-8-8-8-8-8-8-10-10-10-10-10-12-12-12-| 
A||-5-5-5-5-5-5-5-5-5-5-5-5-5-5-5-5-8-8-8-8-8-8-8-8-8--8--8--8--8--10-10-10-| 
D||---------------------------------8-8-8-8-8-8-8-8-------------------------| 

e||----------------------------------------------------------------------------| 
B||----------------------------------------------------------------------------| 
G||-7-7-7-7-7-7-7-7------------------------------------------------------------| 
D||-7-7-7-7-7-7-7-7-10-10-10-10-10-10-10-10-8-8-8-8-8-8-8-8-3-3---0-3-0-5-3--0-| 
A||-5-5-5-5-5-5-5-5-10-10-10-10-10-10-10-10-8-8-8-8-8-8-8-8-3-3---0-3-0-5-3--0-| 
D||-----------------10-10-10-10-10-10-10-10-8-8-8-8-8-8-8-8-3-3---0-3-0-5-3--0-| 

e||---------------------------------|----------------------| 
B||---------------------------------|----------------------| 
G||---------------------------------|----------------------| 
D||---------------------0-0-0-0-0-0-|-0---0---0---0--0--0--| 
A||-0-0-0-0-0-0-0-0-0-0-0-0-0-0-0-0-|-0---0---0---0--0--0--| 
D||-0-0-0-0-0-0-0-0-0-0-0-0-0-0-0-0-|-0---0---0---0--0--0--| 
pm  * * * * * * * *   

e||---------------------| 
B||---------------------| 
G||-7---5---------------| 
D||---------7---5-------| 
A||----------------8-7--| 
D||---------------------| 


Verse 

e||--------------------------| 
B||--------------------------| 
G||-0h2-0-5-2----------------| 
D||-0-0-0-0-0-----------3-2--| 
A||---------------------5-3--| 
D||-------------0-0-0-0------| (3x) 
pm              * * * * 

e||--------------------------| 
B||--------------------------| 
G||-0h2-0-5-2-----------5----| 
D||-0-0-0-0-0-----------5-3--| 
A||---------------------3-3--| 
D||-------------0-0-0-0---3--| 
pm              * * * * 

last 

e||-----------------------------------------------------------------------| 
B||-----------------------------------------------------------------------| 
G||-0h2-0-5-2-----------10-10-10--------------10-10-10--------------------| 
D||-0-0-0-0-0-----------10-10-10-10--10-10-10-10-10-10-8--8-8-8-8-8-8-8-8-| 
A||---------------------8--8--8--10--10-10-10-8--8--8--8--8-8-8-8-8-8-8-8-| 
D||-------------0-0-0-0----------10--10-10-10----------8--8-8-8-8-8-8-8-8-| 
pm              * * * *  


Chorus 

e||---------------------------------------------------------------------------| 
B||---------------------------------------------------------------------------| 
G||---------------------------------------------------10-10-10-10-10-12-12-12-| 
D||-0---0-0-0-0-0-0-0-0-0-0-0-0-0-0-0-8-8-8-8-8-8-8-8-10-10-10-10-10-12-12-12-| 
A||-0---0-0-0-0-0-0-0-0-0-0-0-0-0-0-0-8-8-8-8-8-8-8-8-8--8--8--8--8--10-10-10-| 
D||-0---0-0-0-0-0-0-0-0-0-0-0-0-0-0-0-8-8-8-8-8-8-8-8-------------------------| 

e||-----------------------------------------------------------------| 
B||-----------------------------------------------------------------| 
G||-7-7-7-7-7-7-7-7-7-7-7-7-7-7-7-7---------------------------------| 
D||-7-7-7-7-7-7-7-7-7-7-7-7-7-7-7-7-8-8-8-8-8-8-8-8-3-3-3-3-3-3-3-3-| 
A||-5-5-5-5-5-5-5-5-5-5-5-5-5-5-5-5-8-8-8-8-8-8-8-8-3-3-3-3-3-3-3-3-| 
D||---------------------------------8-8-8-8-8-8-8-8-3-3-3-3-3-3-3-3-| 

e||---------------------------------------------------------------------------------------| 
B||---------------------------------------------------------------------------------------| 
G||---------------------------------------------------------------------------------------| 
D||-----------------------------------------------8-8-8-8-8-8-8-8-3-3-3-3-3-3-3-3-3-5-5-5-| 
A||-0-0-12-12-10-10-12-12-15-15-12-12-10-10-12-12-8-8-8-8-8-8-8-8-3-3-3-3-3-3-3-3-3-5-5-5-| 
D||-0-0-0--0--0--0--0--0--0--0--0--0--0--0--0--0--8-8-8-8-8-8-8-8-3-3-3-3-3-3-3-3-3-5-5-5-| 

e||-------------------------------------------------------------------------------------| 
B||-------------------------------------------------------------------------------------| 
G||-------------------------------------------------------------------------------------| 
D||-----------------------10-10-10-10-10-10-10-10-8-8-8-8--------------3-3--0-3-0-5-3-0-| 
A||-0-0-12-12-10-10-12-12-10-10-10-10-10-10-10-10-8-8-8-8---------8-10-3-3--0-3-0-5-3-0-| 
D||-0-0-0--0--0--0--0--0--10-10-10-10-10-10-10-10-8-8-8-8-8h10-12------3-3--0-3-0-5-3-0-| 

e||-------------------| 
B||---------1---------| 
G||-------0-----------| 
D||-0h2-3-----3-2-0---| 
A||-----------------3-| 
D||-------------------| 


Verse 

e||--------------------------| 
B||--------------------------| 
G||-0h2-0-5-2----------------| 
D||-0-0-0-0-0-----------3-2--| 
A||---------------------5-3--| 
D||-------------0-0-0-0------| (3x) 
pm              * * * * 

e||--------------------------| 
B||--------------------------| 
G||-0h2-0-5-2-----------5----| 
D||-0-0-0-0-0-----------5-3--| 
A||---------------------3-3--| 
D||-------------0-0-0-0---3--| 
pm              * * * * 

last 

e||-----------------------------------------------------------------------------------| 
B||-----------------------------------------------------------------------------------| 
G||-0h2-0-5-2-----------10-10-10--------------10-10-10--------------------------------| 
D||-0-0-0-0-0-----------10-10-10-10--10-10-10-10-10-10-8--8-8-8-8-8--8-8--8-8---3-3-3-| 
A||---------------------8--8--8--10--10-10-10-8--8--8--8--8-8-8-8-10-8-12-8-10--3-3-3-| 
D||-------------0-0-0-0----------10--10-10-10----------8--8-8-8-8-8--8-8--8-8---3-3-3-| 
pm              * * * *  


Chorus 

e||---------------------------------------------------------------------------| 
B||---------------------------------------------------------------------------| 
G||---------------------------------------------------10-10-10-10-10-12-12-12-| 
D||-0---0-0-0-0-0-0-0-0-0-0-0-0-0-0-0-8-8-8-8-8-8-8-8-10-10-10-10-10-12-12-12-| 
A||-0---0-0-0-0-0-0-0-0-0-0-0-0-0-0-0-8-8-8-8-8-8-8-8-8--8--8--8--8--10-10-10-| 
D||-0---0-0-0-0-0-0-0-0-0-0-0-0-0-0-0-8-8-8-8-8-8-8-8-------------------------| 

e||-----------------------------------------------------------------| 
B||-----------------------------------------------------------------| 
G||-7-7-7-7-7-7-7-7-7-7-7-7-7-7-7-7---------------------------------| 
D||-7-7-7-7-7-7-7-7-7-7-7-7-7-7-7-7-8-8-8-8-8-8-8-8-3-3-3-3-3-3-3-3-| 
A||-5-5-5-5-5-5-5-5-5-5-5-5-5-5-5-5-8-8-8-8-8-8-8-8-3-3-3-3-3-3-3-3-| 
D||---------------------------------8-8-8-8-8-8-8-8-3-3-3-3-3-3-3-3-| 

e||---------------------------------------------------------------------------------------| 
B||---------------------------------------------------------------------------------------| 
G||---------------------------------------------------------------------------------------| 
D||-----------------------------------------------8-8-8-8-8-8-8-8-3-3-3-3-3-3-3-3-3-5-5-5-| 
A||-0-0-12-12-10-10-12-12-15-15-12-12-10-10-12-12-8-8-8-8-8-8-8-8-3-3-3-3-3-3-3-3-3-5-5-5-| 
D||-0-0-0--0--0--0--0--0--0--0--0--0--0--0--0--0--8-8-8-8-8-8-8-8-3-3-3-3-3-3-3-3-3-5-5-5-| 

e||---------------------------------------------------------------------------------| 
B||---------------------------------------------------------------------------------| 
G||---------------------------------------------------------------------------------| 
D||-----------------------10-10-10-10-10-10-10-10-8-8-8-8--------------3-3--0-3-0-3-| 
A||-0-0-12-12-10-10-12-12-10-10-10-10-10-10-10-10-8-8-8-8---------8-10-3-3--0-3-0-3-| 
D||-0-0-0--0--0--0--0--0--10-10-10-10-10-10-10-10-8-8-8-8-8h10-12------3-3--0-3-0-3-| 

e||-----------------| 
B||-----------------| 
G||-----------------| 
D||-5---5---0---3---| 
A||-5---5---0---3---| 
D||-5---5---0---3---| 


e||---------------------------------------------------------------| 
B||---------------------------------------------------------------| 
G||---------------------------------------------------------------| 
D||-8--8--8-8-8-9--9-9--9-9-9--10--10--10-10--12--12-12--12-12-12-| 
A||-8--8--8-8-8-9--9-9--9-9-9--10--10--10-10--12--12-12--12-12-12-| 
D||-8--8--8-8-8-9--9-9--9-9-9--10--10--10-10--12--12-12--12-12-12-| 

e||---------------------------------------------------------------------------------| 
B||---------------------------------------------------------------------------------| 
G||-9--9--9-9-9-10--10-10-10-10-10--12-12-12-12-12-12-12-12-12-12-12-12-12-12-12-12-| 
D||-9--9--9-9-9-10--10-10-10-10-10--12-12-12-12-12-12-12-12-12-12-12-12-12-12-12-12-| 
A||-7--7--7-7-7-8---8--8--8--8--8---10-10-10-10-10-10-10-10-10-10-10-10-10-10-10-10-| 
D||---------------------------------------------------------------------------------| (2x) 

e||----------------------------------------------------------------------| 
B||----------------------------------------------------------------------| 
G||-10-10-10--------------10-10-10---------------------------------------| 
D||-10-10-10-10--10-10-10-10-10-10-8--8-8-8-8-8--8-8--8-8---0-3-0-5-3--0-| 
A||-8--8--8--10--10-10-10-8--8--8--8--8-8-8-8-10-8-12-8-10--0-3-0-5-3--0-| 
D||----------10--10-10-10----------8--8-8-8-8-8--8-8--8-8---0-3-0-5-3--0-| 


Outro 

e||--------------------------| 
B||--------------------------| 
G||-0h2-0-5-2----------------| 
D||-0-0-0-0-0-----------3-2--| 
A||---------------------5-3--| 
D||-------------0-0-0-0------| (3x) 
pm              * * * * 

e||--------------------------| 
B||--------------------------| 
G||-0h2-0-5-2-----------5----| 
D||-0-0-0-0-0-----------5-3--| 
A||---------------------3-3--| 
D||-------------0-0-0-0---3--| 
pm              * * * * 
		  

See also:

tabs M2M - Jennifer tabs Kvelertak - Bruane Brenn tabs M2M - Wanna Be Where You Are tabs Audrey Horne - Show And Tell tabs Kvelertak - Ondskapens Galakse tabs M2M - Don't
e-chords

Other versions:

tabs Kvelertak - Offernatt
auto scroll beats size up size down change color hide chords drawings
tab show chords e-chords YouTube Clip e-chords hide all tabs e-chords go to top tab

share