Kvelertak

Nekrodamus

Kvelertak

tabs

by  ALEFFEDERICO

save to print version add songbook text version e-mail correct tuner
chordsukulelecavacokeyboardtabbassdrumsharmonicaflute Guitar Pro
close

there isn't a video lesson for this song

chords

Nekrodamus

	  		
Verse 
e|---------------------------------------------------------------| 
B|---------------------------------------------------------------| 
G|----------7----------------9-7-------7----------7--------------| 
D|---9?--7h9---9---9-7-7-7-------9-9-----9---9?7h9--9-9-7-7-7----| 
A|-7----------------------------------------7--------------------| 
E|---------------------------------------------------------------|   \ 
                                                                       x2 
e|---------------------------------------------------------------|   / 
B|---------------------------------------------------------------| 
G|-------5---------2---------------------------------------------| 
D|-----5---------3-----------------------------------------------|  
A|-5h7-------3h5-------------------------------------------------| 
E|---------------------------------------------------------------| 

Pre-Chorus 
e|---------------------------------------------------------------| 
B|---------------------------------------------------------------| 
G|---------------------------------------------------------------| 
D|---2---2---3-3-3---3---5-5-5---5---7-7?-5h7-5h7----------------| 
A|---2---2---3-3-3---3---5-5-5---5---7-7?-5h7-5h7----------------| 
E|-0-------1-----------3-----------5-----------------------------| 

e|---------------------------------------------------------------| 
B|---------------------------------------------------------------| 
G|---------------------------------------------------------------| 
D|-7-2--2-2--2---3-3-3---3---5-5-5---5---7-7?-7p5-7p5------------| 
A|-7-2--2-2--2---3-3-3---3---5-5-5---5---7-7?-7p5-7p5------------| 
E|-5-0--0-0----1-----------3-----------5-------------------------| 

e|---------------------------------------------------------------| 
B|---------------------------------------------------------------| 
G|---------------------------------------------------------------| 
D|-7-2--2-2--2---3-3-3---3---5-5-5---5---7-7?-5h7-5h7------------| 
A|-7-2--2-2--2---3-3-3---3---5-5-5---5---7-7?-5h7-5h7------------| 
E|-5-0--0-0----1-----------3-----------5-------------------------| 

e|---------------------------------------------------------------| 
B|---------------------------------------------------------------| 
G|---------------------------------------------------------------| 
D|-7-2--2-2--2---3-3-3---3---5-5-5---5---7-7?-7p5-7p5------------| 
A|-7-2--2-2--2---3-3-3---3---5-5-5---5---7-7?-7p5-7p5------------| 
E|-5-0--0-0----1-----------3-----------5-------------------------| 

Chorus 
e|---------------------------------------------------------------| 
B|---------------------------------------------------------------| 
G|---------------------------------------------------------------| 
D|-7-2-2--2--2-2--2-2--2--2-5-9-9--9--9-9-5-5--5-----------------|  x4 
A|-7-2-2--2--2-2--2-2--2--2-5-9-9--9--9-9-5-5--5-----------------| 
E|-5-0-0--0--0-0--0-0--0--0-3-7-7--7--7-7-3-3--3-----------------| 

Verse 
e|---------------------------------------------------------------| 
B|---------------------------------------------------------------| 
G|--------7----------------9-7-------7----------7----------------| 
D|-9?--7h9---9---9-7-7-7-------9-9-----9---9?7h9--9-9-7-7-7------| 
A|----------------------------------------7----------------------| 
E|---------------------------------------------------------------|   \ 
                                                                       x2 
e|---------------------------------------------------------------|   / 
B|---------------------------------------------------------------| 
G|-------5---------2---------------------------------------------| 
D|-----5---------3-----------------------------------------------|  
A|-5h7-------3h5-------------------------------------------------| 
E|---------------------------------------------------------------| 

Pre-Chorus 
e|---------------------------------------------------------------| 
B|---------------------------------------------------------------| 
G|---------------------------------------------------------------| 
D|---2---2---3-3-3---3---5-5-5---5---7-7?-5h7-5h7----------------| 
A|---2---2---3-3-3---3---5-5-5---5---7-7?-5h7-5h7----------------| 
E|-0-------1-----------3-----------5-----------------------------| 

e|---------------------------------------------------------------| 
B|---------------------------------------------------------------| 
G|---------------------------------------------------------------| 
D|-7-2--2-2--2---3-3-3---3---5-5-5---5---7-7?-7p5-7p5------------| 
A|-7-2--2-2--2---3-3-3---3---5-5-5---5---7-7?-7p5-7p5------------| 
E|-5-0--0-0----1-----------3-----------5-------------------------| 

e|---------------------------------------------------------------| 
B|---------------------------------------------------------------| 
G|---------------------------------------------------------------| 
D|-7-2--2-2--2---3-3-3---3---5-5-5---5---7-7?-5h7-5h7------------| 
A|-7-2--2-2--2---3-3-3---3---5-5-5---5---7-7?-5h7-5h7------------| 
E|-5-0--0-0----1-----------3-----------5-------------------------| 

e|---------------------------------------------------------------| 
B|---------------------------------------------------------------| 
G|---------------------------------------------------------------| 
D|-7-2--2-2--2---3-3-3---3---5-5-5---5---7-7?-7p5-7p5------------| 
A|-7-2--2-2--2---3-3-3---3---5-5-5---5---7-7?-7p5-7p5------------| 
E|-5-0--0-0----1-----------3-----------5-------------------------| 

Verse 
e|---------------------------------------------------------------| 
B|---------------------------------------------------------------| 
G|--------7----------------9-7-------7----------7----------------| 
D|-9?--7h9---9---9-7-7-7-------9-9-----9---9?7h9--9-9-7-7-7------| 
A|----------------------------------------7----------------------| 
E|---------------------------------------------------------------|   \ 
                                                                       x2 
e|---------------------------------------------------------------|   / 
B|---------------------------------------------------------------| 
G|-------5---------2---------------------------------------------| 
D|-----5---------3-----------------------------------------------|  
A|-5h7-------3h5-------------------------------------------------| 
E|---------------------------------------------------------------| 

Part 2 
e|---------------------------------------------------------------| 
B|---------------------------------------------------------------| 
G|---------------------------------------------------------------| 
D|---------5-------5-5h7-7-7---7p5--5-------5--------------------| 
A|----7?5h7---7--------------------7-7--------7------------------| 
E|-0-------------------------------------------------------------|   \ 
                                                                       x2 
e|---------------------------------------------------------------|   / 
B|---------------------------------------------------------------| 
G|---------------------------------------------------------------| 
D|---------5-------5-5h7-7-7--------5-------3--------------------| 
A|----7?5h7---7----------------5h7-5---3h5-3---------------------| 
E|-0-------------------------------------------------------------| 

Chorus 
e|---------------------------------------------------------------| 
B|---------------------------------------------------------------| 
G|---------------------------------------------------------------| 
D|-7-2-2--2--2-2--2-2--2--2-5-9-9--9--9-9-5-5--5-----------------|  x4 
A|-7-2-2--2--2-2--2-2--2--2-5-9-9--9--9-9-5-5--5-----------------| 
E|-5-0-0--0--0-0--0-0--0--0-3-7-7--7--7-7-3-3--3-----------------|  


Pre-Chorus 
e|---------------------------------------------------------------| 
B|---------------------------------------------------------------| 
G|---------------------------------------------------------------| 
D|---2---2---3-3-3---3---5-5-5---5---7-7?-5h7-5h7----------------| 
A|---2---2---3-3-3---3---5-5-5---5---7-7?-5h7-5h7----------------| 
E|-0-------1-----------3-----------5-----------------------------| 

e|---------------------------------------------------------------| 
B|---------------------------------------------------------------| 
G|---------------------------------------------------------------| 
D|-7-2--2-2--2---3-3-3---3---5-5-5---5---7-7?-7p5-7p5------------| 
A|-7-2--2-2--2---3-3-3---3---5-5-5---5---7-7?-7p5-7p5------------| 
E|-5-0--0-0----1-----------3-----------5-------------------------| 

e|---------------------------------------------------------------| 
B|---------------------------------------------------------------| 
G|---------------------------------------------------------------| 
D|-7-2--2-2--2---3-3-3---3---5-5-5---5---7-7?-5h7-5h7------------| 
A|-7-2--2-2--2---3-3-3---3---5-5-5---5---7-7?-5h7-5h7------------| 
E|-5-0--0-0----1-----------3-----------5-------------------------| 

e|---------------------------------------------------------------| 
B|---------------------------------------------------------------| 
G|---------------------------------------------------------------| 
D|-7-2--2-2--2---3-3-3---3---5-5-5---5---7-7?-7p5-7p5------------| 
A|-7-2--2-2--2---3-3-3---3---5-5-5---5---7-7?-7p5-7p5------------| 
E|-5-0--0-0----1-----------3-----------5-------------------------| 

Verse 
e|---------------------------------------------------------------| 
B|---------------------------------------------------------------| 
G|--------7----------------9-7-------7----------7----------------| 
D|-9?--7h9---9---9-7-7-7-------9-9-----9---9?7h9--9-9-7-7-7------| 
A|----------------------------------------7----------------------| 
E|---------------------------------------------------------------|   \ 
                                                                       x2 
e|---------------------------------------------------------------|   / 
B|---------------------------------------------------------------| 
G|-------5---------2---------------------------------------------| 
D|-----5---------3-----------------------------------------------|  
A|-5h7-------3h5-------------------------------------------------| 
E|---------------------------------------------------------------| 

e|---------------------------------------------------------------| 
B|---------------------------------------------------------------| 
G|-------5------2------------------------------------------------| 
D|-----5------3--------------------------------------------------| 
A|---5------3----------------------------------------------------| 
E|---------------------------------------------------------------| 

************************************ 

| h  Hammer-on 
| x  Dead note 
| p  Pull-off 

************************************ 
		  

See also:

tabs M2M - Wanna Be Where You Are tabs Kvelertak - Sultans Of Satan tabs Kvelertak - Nekrodamus tabs M2M - Don't tabs Kvelertak - Bruane Brenn tabs Kvelertak - Undertro
e-chords

Other versions:

tabs Kvelertak - Nekrodamus
auto scroll beats size up size down change color hide chords drawings
tab show chords e-chords YouTube Clip e-chords hide all tabs e-chords go to top tab

share