Johann Sebastian Bach

home > Johann Sebastian B...

Gigue - Violin Partita Tab

Johann Sebastian Bach

Difficulty: ExpertExpert

by alexribeiro

tuner correct add songbook print version text version save to e-mail
chordsukulelecavacokeyboardtabbassdrumsharmonicsflute Guitar Pro
chords

Gigue - Violin Partita

  		|--------||----------0-1-0-3p1p0----------|-------0h1-3-1-5p3p1------------| 
|--------||--------3-------------3-2------|---------------------5-3--------| 
|---2----||------2-------------------2----|-----2-------------------2------| 
|--------||--0h3-----------------------2--|---2-----------------------3----| 
|--------||-------------------------------|-4------------------------------| 
|--------||-------------------------------|--------------------------------| 

|------------6-5---------------------5-----------| 
|----6p5---6-----8-6-5-------5-----5---8-6-5-----| 
|--------7-------------7-5-7---7-5-----------7-5-| 
|-0----------------------------------------------| 
|------------------------------------------------| 
|------------------------------------------------| 

|------------3------------------------------------| 
|----3-----3---6-5-3-2--------2-----2-5-3-2-------| 
|3-5---5-3-------------4-2--4---4-2---------4-2---| 
|-----------------------------------------------5-| 
|-------------------------------------------------| 
|-------------------------------------------------| 

|------------------------------------------| 
|----------------3-2-------------------5-6-| 
|---2p0------------------------2-3-5-7-----| 
|-3-----3p2p0---------0--2-3-5-------------| 
|-------------0----------------------------| 
|------------------------------------------| 

|------------------------------------------------------| 
|-8-5---------------------------------------------8-10-| 
|-----5--------5---------------------------7-9-10------| 
|-------5----5---5-------5-7-5------7-8-10-------------| 
|----------7-------7---7-------8-10--------------------| 
|--------------------8---------------------------------| 

|-6----6-10-----5---5-8-------------6-----------5-----| 
|---10------5-8---8--------6-8--6-8-----5-6-5-6---8-6-| 
|------------------------7------------5---------------| 
|-----------------------------------------------------| 
|-----------------------------------------------------| 
|-----------------------------------------------------| 

|---------------------------------------------------| 
|-5---5-6-5---------------------6-------------------| 
|---7-------7-5---5-7-5-------5---5---------5-------| 
|---------------8-------8-7h8-------7---5h7---7-----| 
|-------------------------------------8---------8---| 
|---------------------------------------------------| 

|---------------------------------------6---------| 
|-------------------------------------8---8-------| 
|-----------------------------------7-------7-----| 
|-------8-----------------------5-8-----------8-5-| 
|-5h6h8---8-5-----5-8-5-------5-------------------| 
|-------------6h8-------6-3-6---------------------| 

|-----------6-------6---6------------5-------5---5-| 
|-------5-8----------------------5-6---------------| 
|-----5-------5---5---5--------5-------5---5---5---| 
|---5-----------8------------7-----------8---------| 
|-7------------------------8-----------------------| 
|--------------------------------------------------| 

|-----------6-------6---6------------5-------5---5-| 
|-------5-8----------------------5-6---------------| 
|-----5-------5---5---5--------5-------5---5---5---| 
|---5-----------8------------7-----------8---------| 
|-7------------------------8-----------------------| 
|--------------------------------------------------| 

|-------5-6-10-------10---10-------------8--------8---8-| 
|-----6-----------------------------8-10----------------| 
|---7----------9-7-9----9---------9--------7----7---7---| 
|-8--------------------------7-10------------10---------| 
|-------------------------------------------------------| 
|-------------------------------------------------------| 

|-----------6--------6---6-----------5-------5-----| 
|-------6-8----------------------5-6-----------6---| 
|-----7-------5---5----5-------5-------5---5-----7-| 
|-5-8-----------8------------7-----------8---------| 
|--------------------------8-----------------------| 
|--------------------------------------------------| 

|-----------------------------------------------| 
|---------------------------------------------5-| 
|-------5-7---------------------------------5---| 
|-8-7-8-----8-5---5-7-8-5---------5-------5-----| 
|---------------8---------7-5-7-8---7---7-------| 
|-------------------------------------8---------| 

|-------------------------------------------7-5-| 
|-----------------------------------------6-----| 
|-------------------------------7-6-7---7-------| 
|-8-7-5-------------5---------7-------7---------| 
|-------8-7-5-4-------7-8-5-8-------------------| 
|---------------7-5-----------------------------| 

|-7-----------------------------------5-4-5h7h8---5-8-| 
|---6-5-----------------------------5-----------8-----| 
|-------7-5-4-------------7-4-5---5-------------------| 
|-------------7-6-4-------------7---------------------| 
|-------------------7---------------------------------| 
|-----------------------------------------------------| 

|-----5-----5-------------------------------7--| 
|-6h8---5-6-----5h6-----6----------------------| 
|-------------7-----6-7----------6-7h9h10-7---7| 
|-------------------------6--7-9---------------| 
|----------------------------------------------| 
|----------------------------------------------| 

|---------5-----------4-----------5------------7----| 
|-----5-----------------------5---------------------| 
|-5h7---5---5-4h5h7-4---4-5h7---5---5-7h9h10-7---7--| 
|---------------------------------------------------| 
|---------------------------------------------------| 
|---------------------------------------------------| 

|-------------------------------------------------| 
|-----5-------------------------------------------| 
|-5-7---4-5---4-5-7---4---------------------------| 
|-----------7-------7---6-7-------5---------------| 
|-----------------------------4-7-------7-4---4-7-| 
|---------------------------5---------------5-----| 

|---------------------5-4-5-------------|| 
|-------------------7-------5-----------|| 
|---------7-6-7---7-----------6---------|| 
|-4---4-7-------7---------------7-------|| 
|---5-----------------------------7-4-0-|| 
|---------------------------------------|| 
	  

Search Paypal
auto scroll beats size up size down change color hide chords drawings
tab show chords e-chords YouTube Clip e-chords hide all tabs e-chords go to top tab