Johann Sebastian Bach

home > Johann Sebastian B...

Bmv 1020 Sonata Flute Harpsichord Part 1 Tab

Johann Sebastian Bach

Difficulty: nolevelnolevel

by IronPower4Ever

tuner correct add songbook print version text version save to e-mail
chordsukulelecavacokeyboardtabbassdrumsharmonicsflute Guitar Pro
chords

Bmv 1020 Sonata Flute Harpsichord Part 1

  		

         vib                  vib                  vib              slight vib after tone rang 
e|----18-17----15--15-------15---------------------------------------------| 
B|-15------------19------------18-----16-15-16-----------------------------| 
G|---------------------------------------------------------17-15-14--------| 
D|------------------------17---------------------17-17-16-----------17-----| 
A|-------------------------------------------------------------------------| 
E|-------------------------------------------------------------------------| 

e|----18-17----15--15-------15-------------------------------------| 
B|-15------------19------------18-----16-15-16---------------------| 
G|---------------------------------------------------------17------| 
D|------------------------17---------------------17-17-16----------| 
A|-----------------------------------------------------------------| 
E|-----------------------------------------------------------------| 

    v         v         roll 2     (v)      (v)             v 
e|---------------------------15----------------------------15-------| 
B|------------------------15-------18-16-15-16-------15-16----------| 
G|-15--15-14-15-----14-15-------------------------17----------------| 
D|---------------17-------------------------------------------------| 
A|------------------------------------------------------------------| 
E|------------------------------------------------------------------| 
                 
          v 
    3  1  3     2  4       v                              v           v      v        v 
e|-------------------------13----------------------------------------18-----18-17h18-18-| 
B|--------------------------------16-15----15---------15-18-----------------------------| 
G|-14-12-14----------14-17--------------17------15-17-------------15-----15-------------| 
D|-------------15-17--------------------------------------------------------------------| 
A|--------------------------------------------------------------------------------------| 
E|--------------------------------------------------------------------------------------| 

                v        v        v 
variation  e|--18-sl-17-17-sl-18-18---|  or trills 




   let ring or not   
 you can add chord stepwise 
            3     4                       
e|-----------------------------------------------------------------------------| 
B|----16-------------------------------------15--------------------------------| 
G|-15----15----15----15----15----15-------15----15----15----15----15----15-----| 
D|----------17----------17-------------15----------15----------15--------------| 
A|----------------18----------18-------------------------17----------17--------| 
E|-----------------------------------------------------------------------------| 

   
e|-----------------------------------------v----| 
B|----15-16-15------------15-----15-16-18-15----| 
G|---------------17-15-17-----17----------------| 
D|----------------------------------------------| 
A|-18-------------------------------------------| 
E|----------------------------------------------| 
                                                    v                     v 
e|-------------------------------------------------15--------------------------| 
B|-------------15-16-18-16-18-15-16-18-16-15-16-18--------18-16-15-------------| 
G|-15-14-15-17-----------------------------------------------------17-14-------| 
D|-----------------------------------------------------------------------15----| 
A|-----------------------------------------------------------------------------| 
E|-----------------------------------------------------------------------------| 
                                                                      vib   
e|----15-----13-----12-----------------15-----13-----12-----------------------------| 
B|----------------------------10--------------------------------10-11-13--10--------| 
G|-15-----14-----12-----10-12-------15-----14-----12------10-12--------------10-----| 
D|----------------------------------------------------------------------------------| 
A|----------------------------------------------------------------------------------| 
E|----------------------------------------------------------------------------------| 

    2  3  2  3 2  1                                                                  
e|----18-17-18---15--------------------------18-17-18----15-----------------------------| 
B|--18--------18----16-18-15-16----15------18---------18----16-18-15-16----15- 15-16-18---| 
G|------------------------------17--------------------------------------17---17---------| 
D|--------------------------------------------------------------------------------------| 
A|--------------------------------------------------------------------------------------| 
E|--------------------------------------------------------------------------------------| 


                                                v 
e|----------------15------------------------------------| 
B|-------15-16-18----18-16-15---------------------------| 
G|-15-17----------------------17-15-14----14-15-17------| 
D|-------------------------------------17---------------| 
A|----------------------------------------------------- | 
E|------------------------------------------------------| 

   values are longer here 
   you cud barre 15th fret  same here                 and here 
                   1                1 3                 
e|-------------------------------------------------------------------------------------------20-18-20----| 
B|----18-15----------------15--------------------------------16-------------------16-15-16---------------| 
G|----------15-17-14----------15----14--------15----------15-----------15-17-15--------------------------| 
D|-15----------------------------17--------------17----15------------------------------------------------| 
A|------------------------------------18------------18---------------------------------------------------| 
E|-------------------------------------------------------------------------------------------------------| 

                                       tr        v 
e|-18-17-15-------------------18-15----------------------------| 
B|----------18-16-15----15-----------15h16p15------------------| 
G|-------------------17-------------------------17--15--15-----| 
D|-------------------------------------------------------------| 
A|-------------------------------------------------------------| 
E|-------------------------------------------------------------| 

chords for piano interlude, the changes are not so obvious at times:  

Bb,F,Bb,F   Bb,c,d,c,Bb,Eb,F,Bb,F,Bb   




e|----22-20--18-17-18------18-16--15----15----------------------------| 
B|-18--------------------------------18-----------------16--15-13-----| 
G|----------------------15-------------------15-15--14------------15--| 
D|--------------------------------------------------------------------| 
A|--------------------------------------------------------------------| 
E|--------------------------------------------------------------------| 


e|----18-17----15--15-------15---------------------------------------------| 
B|-15------------19------------18-----16-15-16-----------------------------| 
G|---------------------------------------------------------17-15-14--------| 
D|------------------------17---------------------17-17-16-----------17-----| 
A|-------------------------------------------------------------------------| 
E|-------------------------------------------------------------------------| 

             v 
             5x             5x 
e|-----------------------------------------------------------------------| 
B|-------15--16---------16--18----------18-20-20-20-20-20----------------| 
G|----15-------------17--------------19-------------------17-------------| 
D|-17-------------18--------------20-------------------------------------| 
A|-----------------------------------------------------------------------| 
E|-----------------------------------------------------------------------| 

   d string indicates fret on e string 
                v   v 
e|-16-15----15-16--------15-13----13-15--------13-11-10-11-13------------| 
B|-------18--------------------16----------------------------------------| 
G|-----------------15--------------------13------------------------------| 
D|-----------------------------------------------------------------------| 
A|-----------------------------------------------------------------------| 
E|-----------------------------------------------------------------------| 

Arpeggio part:  
plenty of vibrato in it                                            or 15151518 

e|----------15----------15--------15-20--------16-20-----------13--------10-13--------13-18--------15-18--| 
B|-------15----------16--------17-----------18--------------13--------11-----------15-----------16--------| 
G|----16----------17--------17-----------17--------------14--------10-----------15-----------15-----------| 
D|-17----------17-------------------------------------15--------------------------------------------------| 
A|--------------------------------------------------------------------------------------------------------| 
E|--------------------------------------------------------------------------------------------------------| 

  
                                          tricky rhythm 
                            small barre        vib      vib     vib 
                                            
e|------------15------------------13-----------15-------------------------------------| 
B|---------16----14------------15----12-------------18--16--15------------------------| 
G|------15------------------13----------------------------------17--15----------------| 
D|-17------------------15-----------------------------------------------18-17-15------| 
A|------------------------------------------------------------------------------------| 
E|------------------------------------------------------------------------------------| 


      staccato like              v                                 v       v 
e|-16-15-16----------------------------15-16-15----------------16-16---15-----------| 
B|-----------18-17-18-----------18--18----------18-16-15-16-18-------------18-------| 
G|---------------------18-17-18-----------------------------------------------------| 
D|----------------------------------------------------------------------------------| 
A|----------------------------------------------------------------------------------| 
E|----------------------------------------------------------------------------------| 


* where it says x2 second time last note is g:17  
                                                                 |  x2 |   v  v 
                                                                         
e|-------15-16-15-------15---------------------15-16-15-------15----------16-----------| 
B|-16-18----------18-16----18-16-15-18---16-18----------18-16----18-16-15----18-16.-15.| 
G|-------------------------------------------------------------------------------------| 
D|-------------------------------------------------------------------------------------| 
A|-------------------------------------------------------------------------------------| 
E|-------------------------------------------------------------------------------------| 

 do not let ring  
                                             4  4   2  2   1  1   1  1 
e|----------15----------15------------15-----20-20--18-18--17-17--15-15------------| 
B|----15-16----16-15-16------16-15-16------------------------------------18-18--16-| 
G|-17-------------------------------------17---------------------------------------| 
D|---------------------------------------------------------------------------------| 
A|---------------------------------------------------------------------------------| 
E|---------------------------------------------------------------------------------| 

   |    3x   |            v      v      v     v     vib   but even the ones before have vibrato,just the accent is less 
e|--------------------18-18--17-17--15-15------------------------------------| 
B|-15----15-18-----------------------------18-18--16-16--15------------------| 
G|----17-----------15--------------------------------------------------------| 
D|---------------------------------------------------------------------------| 
A|---------------------------------------------------------------------------| 
E|---------------------------------------------------------------------------| 


   |    3x   |  
e|---------------------17-17--15-15--14-14-----------------------------------| 
B|----------16------------------------------16-16--15-15---------------------| 
G|-17-15-17---------14------------------------------------17-15-14-----------| 
D|-----------------------------------------------------------------17--------| 
A|---------------------------------------------------------------------------| 
E|---------------------------------------------------------------------------| 


piano interlude chords: g,D7,g,D7  g,c,F,Bb,Eb, c,(Eb),D7 

                                                          v 
e|-15-----14-----12---------|     e|----14-15-17-15-17-14-15------19-20-22-20-22-19-20   
B|----17-----15-----14--15--|     B|-17------------------------22--------------------|    
G|--------------------------| x2  G|-------------------------------------------------|    
D|--------------------------|     D|-------------------------------------------------| 
A|--------------------------|     A|-------------------------------------------------| 
E|--------------------------|     E|-------------------------------------------------|                         

e|-15----------15----------------------15----------15------------------| 
B|-------15-16-------15-16-15-16----15----------15----------15----15---| 
G|----17----------17-------------17-------15-17-------15-17----17------| 
D|---------------------------------------------------------------------| 
A|---------------------------------------------------------------------| 
E|---------------------------------------------------------------------| 

   2 
e|-------------------------------------------------------------------------------------| 
B|-------------------------------------15-------------------15-------------------------| 
G|-15-17-15-14--- 14----14-15-14-15-17----15-14----14-15-17----17-15-14----------------| 
D|-------------17----17-------------------------17----------------------17-15-13-------| 
A|-------------------------------------------------------------------------------------| 
E|-------------------------------------------------------------------------------------| 

e|-----15--------15-sl-14-14-sl-15--15--------------------------15----15---------------| 
B|---------------------------------------------------16-15-16----- 18------16-15-16----| 
G|-12-------12---------------------------16----17-----------------------------------17-15-17-| 
D|-------------------------------------------------------------------------------------| 
A|-------------------------------------------------------------------------------------| 
E|-------------------------------------------------------------------------------------| 
                  1  1        v   V    v   v 
e|---------------------------------------------| 
B|---------------------------------------------| 
G|-17-15----15-17-15-14----14-17--17---15--14--| 
D|-------18-------------16---------------------| 

                                                                            v      v 
e|--------------------------------------------------------------------------------------| 
B|--------------------------------------------------------------------------------------| 
G|----14-15-17-15-14----15-14-------14-----14-15-17-15-14----15-14-------14----14----14-| 
D|-17----------------17-------17-16-----17----------------17-------17-16----17.----17.--| 
A|--------------------------------------------------------------------------------------| 
E|--------------------------------------------------------------------------------------| 


e|-------10-11-10-------10---------------| 
B|-11-13----------13-11----13-11-10-13---| 
G|---------------------------------------| 
D|---------------------------------------|  x2 
A|---------------------------------------| 
E|---------------------------------------| 

  OR 

e|---------------------------------------| 
B|-------15-16-15-------15---------------| 
G|-15-17----------17-15----17-15-14-17---| 
D|---------------------------------------|  x2 
A|---------------------------------------| 
E|---------------------------------------| 

                     (v)     (v)                          or tr 
e|-------15----------17-15----------------15---------------------------------| 
B|----15----18-16----------19-16-15----------16------------------------------| 
G|-15-------------17----------------17-15-------17-15-sl-14-14---------------| 
D|---------------------------------------------------------------sl-17--17---| 
A|---------------------------------------------------------------------------| 
E|---------------------------------------------------------------------------| 
 
	  

Full key step upFull key step up
Half key step upHalf key step up
Half key step downHalf key step down
Full key step downFull key step down
Search Paypal
auto scroll beats size up size down change color hide chords drawings
tab show chords e-chords YouTube Clip e-chords hide all tabs e-chords go to top tab