Iwan Rheon

Follow Me

Iwan Rheon

tabs

by  BRUNBLAZKOWSKI

save to print version add songbook text version e-mail correct tuner
chordsukulelecavacokeyboardtabbassdrumsharmonicaflute Guitar Pro
close

there isn't a video lesson for this song

chords

Follow Me

	  		Intro: 

e|---2-------2-------0-------2----| 
B|----3-------3-------3-------3---| 
G|--0--0----0--0----2--2----0--0--| 
D|------0-------0-------0-------0-| 
A|2-------0---------------2-------|   x2 
E|----------------2---------------| 

e|---2-------2-------2-------2----| 
B|----3-------3-------3-------3---| 
G|--0--0----0--0----0--0----0--0--| 
D|------0-------0-------0-------0-| 
A|2-------2-------2-------2-------| 
E|--------------------------------| 


verse 1: "Set off this morning..." 

e|---2-------2-------0-------2----| 
B|----3-------3-------3-------3---| 
G|--0--0----0--0----2--2----0--0--| 
D|------0-------0-------0-------0-| 
A|2-------0---------------2-------|   x10 
E|----------------2---------------| 


Chorus: 

e|---2-------2-------2-------2----| 
B|----3-------3-------3-------3---| 
G|--0--0----0--0----0--0----2--2--| 
D|------0-------0-------0-0-----0-| 
A|--------0-------1---------------|   x2 
E|2-------------------------------| 
  
e|---2-------2---------2----| 
B|----3-------3---------3---| 
G|--2--2----2--2------2--2--| 
D|0-----0-0-------0-0-----0-| 
A|--------------------------| 
E|--------------------------| 


verse 2: 

e|---2-------2-------0-------2----| 
B|----3-------3-------3-------3---| 
G|--0--0----0--0----2--2----0--0--| 
D|------0-------0-------0-------0-| 
A|2-------0---------------2-------|   x8 
E|----------------2---------------| 


Chorus 


Bridge: "We slipped into the sun..." 

e|---2----232---2-|---2-------5----|---3-------3---|----2------------|---2-------2----| 
B|----3-------3---|----3-------5---|----3-------3--|-----3------232--|----3-------3---| 
G|--2--2----------|--4--4----6--6--|--4--4----4--4-|---2--2----2-----|--4--4----4--4--| 
D|0-----0---------|------4-------7-|------5-------5|-0-----0-------2-|------4-------4-| 
A|----------------|2---------------|---------------|---------0-------|2-------2-------|   x2 
E|----------------|--------5-------|3-------3------|-----------------|----------------| 


Final Chorus: 

e|---2-------2-------2-------2----| 
B|----3-------3-------3-------3---| 
G|--0--0----0--0----0--0----2--2--| 
D|------0-------0-------0-0-----0-| 
A|--------0-------1---------------| 
E|2-------------------------------| 

e|---2-------2-------2----2-------| 
B|----3-------3-------3---3-------| 
G|--0--0----0--0----0--0--2-------| 
D|------0-------0-------0-0-------| 
A|--------0-------1---------------| 
E|2-------------------------------| 


Lyrics: 

Set off tomorrow well I wish you well 
With your handful of wild flowers on the road to hell 
Follow me you say hold my hand 
Follow me to this righteous land 

Set off tomorrow on the road to hell 
With a picture in your pocket of the wishing well 
Follow me you say hold my hand 
Follow me to this righteous land 

Where all your fears are in your eyes 
All your foes are on your side 

Well I set off this morning waving thank you sweet 
For the slither of alcohol to ground my fear 
Follow me now I understand 
Follow me won't you hold my hand 

Cause there's no point writing fables of how we should be 
When the clouds gave condensation and you hand to me 
Follow me now I understand 
Follow me my sweet partisan 

Where all your fears are in your eyes 
All your foes are on your side 

We slipped into the sun on a summer's day 
Left the grey cast of feel I am dreaming away 
You know this morning tastes so sweet 
'Cause the ground beneath my feet and the air I breathe 
Well maybe that's something you'll never believe 

When all your fears are in your eyes 
All your foes are on your side 


Please rate! 
		  

See also:

tabs Natasha Bedingfield - Unwritten tabs Sade - Jezebel tabs Genesis - We Cant Dance tabs Sting - Mad About You tabs Paul McCartney - Band on the run - introdução tabs Gloria Gaynor - I Will Survive
e-chords

Other versions:

tabs P.O.D. - Follow Me tabs Rufio - Follow Me tabs Uncle Kracker - Follow Me tabs Stone Soul - Follow Me tabs Metallica - Follow Me tabs E-girls - Follow Me
auto scroll beats size up size down change color hide chords drawings
tab show chords e-chords YouTube Clip e-chords hide all tabs e-chords go to top tab

share