Rufio

Follow Me

Rufio

tabs Expert expert

by  MARTIN

save to print version add songbook text version e-mail correct tuner
chordsukulelecavacokeyboardtabbassdrumsharmonicaflute Guitar Pro
close

there isn't a video lesson for this song

chords

Follow Me

	  		Intro  
|-----------------------------------------|  
|-----------------------------------------|  
|-9-9-9~--9-9-9--7--5~--9-9-9--7--5~--7~--|  
|-x-x-x---x-x-x--x--x---x-x-x--x--x---x---|  
|-7-7-7~--7-7-7--5--3~--7-7-7--5--3~--5~--|  
|-----------------------------------------|  
 
Intro Cont. ("broken on the thought of leaving you..")  
|----------------|  
|----------------|  
|----------------|  
|-7~--5~--3~--5x-|  
|-7~--5~--3~--5x-|  
|-5~--3~--1~--3x-|  
 
Pre-Verse  
|-----------------------------------------------------------------------------|  
|-----------------------------------------------------------------------------|  
|-----------------------------------------------------------------------------|  
|-7-7-7--3-3-3--5-5-5--7-7-7--5-5-5--5-5-5--7-7-7--3-3-3--5-5-5--7-7-7--5-5-5-|  
|-7-7-7--3-3-3--5-5-5--7-7-7--3-3-3--5-5-5--7-7-7--3-3-3--5-5-5--7-7-7--5-5-5-|  
|-5-5-5--1-1-1--3-3-3--5-5-5---------3-3-3--5-5-5--1-1-1--3-3-3--5-5-5--3-3-3-|  
P.M..... ..... ..... ..... ..... ..... ..... ..... ..... ..... .....  
 
Verse ("Inside my heart...")  
|------------------------------------------------------------------|  
|------------------------------------------------------------------|  
|------------------------------------------------------------------|  
|-5-5-5--5-5-5-5-5-5-5-5-5--5-5-5-5-5-5-5-2-2-2--2-2-2-2-2-2-2-2-2-|  
|-3-3-3--3-3-3-3-3-3-3-3-3--3-3-3-2-2-2-2-0-0-0--0-0-0-0-0-0-0-0-0-|  
|------------------------------------------------------------------|  
P.M..... ................. ................... ..................  
 
Verse Cont.  
|---------------------------------------------------|  
|---------------------------------------------------|  
|---------------------------------------------------|  
|-2-2-2-2-2-2-3-3-3--3-3-3-3-3-3-5-5-5--5-5-5-5-5-5-|  
|-0-0-0-0-0-0-3-3-3--3-3-3-3-3-3-5-5-5--5-5-5-5-5-5-|  
|-------------1-1-1--1-1-1-1-1-1-3-3-3--3-3-3-3-3-3-|  
................. ................. ...........  
 
Verse Cont.  
|------------------------------------------|  
|------------------------------------------|  
|-9-9-9~--9-9-9--7--5~--9-9-9--7--5~--4xxx-|  
|-x-x-x---x-x-x--x--x---x-x-x--x--x---xxxx-|  
|-7-7-7~--7-7-7--5--3~--7-7-7--5--3~--2xxx-|  
|------------------------------------------|  
 
Chorus  
|-------------------------------------------------------------------|  
|-------------------------------------------------------------------|  
|-----------------------------------5-5-5-5-5-4-5-5-4-4-4-4-4-4-5-0-|  
|-7-7-7-7-7-7-7-7--3-3-3-3-3-3-3-3--5-5-5-5-5-5-5-5-5-5-5-5-5-5-5-5-|  
|-7-7-7-7-7-7-7-7--3-3-3-3-3-3-3-3--3-3-3-3-3-3-3-3-3-3-3-3-3-3-3-3-|  
|-5-5-5-5-5-5-5-5--1-1-1-1-1-1-1-1----------------------------------|  
 
Chorus Cont.  
|-------------------------------------------------------------------|  
|-------------------------------------------------------------------|  
|-----------------------------------5-5-5-5-5-4-5-5-4-4-4-4-4-4-4-4-|  
|-7-7-7-7-7-7-7-7--3-3-3-3-3-3-3-3--5-5-5-5-5-5-5-5-5-5-5-5-5-5-5-5-|  
|-7-7-7-7-7-7-7-7--3-3-3-3-3-3-3-3--3-3-3-3-3-3-3-3-3-3-3-3-3-3-3-3-|  
|-5-5-5-5-5-5-5-5--1-1-1-1-1-1-1-1----------------------------------|  
 
Post Chorus  
|-----------------------------------------------------|  
|-----------------------------------------------------|  
|-----------------------------------------------------|  
|-3-3x--5-5x--7-7x--5-5x--3-3x--5-5x--7-7x--5-5x--3~--|  
|-3-3x--5-5x--7-7x--3-3x--3-3x--5-5x--7-7x--3-3x--3~--|  
|-1-1x--3-3x--5-5x--------1-1x--3-3x--5-5x--------1~--|  
 
Intro variation  
|-----------------------------------|  
|-----------------------------------|  
|-----------------------------------|  
|-7-7-7--3-3-3--5-5-5--7-7-7--5-5-5-|  
|-7-7-7--3-3-3--5-5-5--7-7-7--5-5-5-|  
|-5-5-5--1-1-1--3-3-3--5-5-5--3-3-3-|  
P.M..... ..... ..... ..... .....  
 
Verse ("Something strange...") x2  
|---------------------------------------------------------------|  
|---------------------------------------------------------------|  
|---------------------------------------------------------------|  
|-5-5-5-5-5-5-5-5-5-5-5-5-5-5-5-5--2-2-2-2-2-2-2-2-2-2-2-2-2-2--|  
|-3-3-3-3-3-3-3-3-3-3-3-3-2-2-2-2--0-0-0-0-0-0-0-0-0-0-0-0-0-0--|  
|---------------------------------------------------------------|  
P.M.............................................................  
 
Verse Cont.  
|----------------------------------|  
|----------------------------------|  
|----------------------------------|  
|-3-3-3-3-3-3-3-3--5-5-5-5-5-5-5-5-|  
|-3-3-3-3-3-3-3-3--5-5-5-5-5-5-5-5-|  
|-1-1-1-1-1-1-1-1--3-3-3-3-3-3-3-3-|  
................................  
 
Repeat Chorus  
Post-Chorus  
|-------------------------------------------------------------|  
|-------------------------------------------------------------|  
|-------------------------------------------------------------|  
|-3-3x--5-5x--7-7x--5-5x--3-3xx--5-5xxx--7-7xx--5-5xx--3~-----|  
|-3-3x--5-5x--7-7x--3-3x--3-3xx--5-5xxx--7-7xx--3-3xx--3~-----|  
|-1-1x--3-3x--5-5x--------1-1xx--3-3xxx--5-5xx---------1~--3^-|  
 
Bridge  
|---------------------------------------------------------------------|  
|---------------------------------------------------------------------|  
|-----5---4---0---------5---4---0--------5---4---5----5/7-7-7-7-9-9-9-|  
|-7-7---7---7---7--7-7----7---7---7--7-7---7---7---7------------------|  
|---------------------------------------------------------------------|  
|---------------------------------------------------------------------|  
.... . . . ... . . . .... . . .  
 
|---------------------------------------------------------------------|  
|---------------------------------------------------------------------|  
|-----5---4---0---------5---4---0--------5---4---5----5/7-7-7-7-9-9-9-|  
|-7-7---7---7---7--7-7----7---7---7--7-7---7---7---7------------------|  
|---------------------------------------------------------------------|  
|---------------------------------------------------------------------|  
.... . . . ... . . . .... . . .  
 
|---------------------------------------------------------------------|  
|---------------------------------------------------------------------|  
|-----5---4---0---------5---4---0--------5---4---5---7---5---4---5----|  
|-7-7---7---7---7--7-7----7---7---7--7-7---7---7---7---7---7---7------|  
|---------------------------------------------------------------------|  
|---------------------------------------------------------------------|  
.... . . . ... . . . ... . . . . . .  
 
|---------------------------------------------------------------------|  
|---------------------------------------------------------------------|  
|-----5---4---0---------5---4---5-5/7-7-7-7-7-7-7-7-9-9-9-9-9---------|  
|-7-7---7---7---7--7-7----7---7---------------------------------------|  
|---------------------------------------------------------------------|  
|---------------------------------------------------------------------|  
.... . . . ... . .  
 
Repeat Chorus  
Post-Chorus  
|------------------------------------------------------------|  
|------------------------------------------------------------|  
|------------------------------------------------------------|  
|-3-3xxx--5-5xxx--7-7xx--5-5xx--3-3xx--5-5xx--7-7xx--5-5-5-5-|  
|-3-3xxx--5-5xxx--7-7xx--3-3xx--3-3xx--5-5xx--7-7xx--3-3-3-3-|  
|-1-1xxx--3-3xxx--5-5xx---------1-1xx--3-3xx--5-5xx----------|  
 
Post Chorus Cont.  
|-------------------------------------------------|  
|-------------------------------------------------|  
|-------------------------------------------------|  
|-3-3-3-3--5-5-5-5--7-7-7-7--5-5-5-5--3~--5~----|  
|-3-3-3-3--5-5-5-5--7-7-7-7--3-3-3-3--3~--5~----|  
|-1-1-1-1--3-3-3-3--5-5-5-5-----------1~--3~----|  
 
Outro  
|----------------------------------------------------------------------|  
|----------------------------------------------------------------------|  
|----------------------------------------------------------------------|  
|-7-7-7--3-3-3--5-5-5--7-7-7--5-5-5--5-5-5--7-7-7--3-3-3--5-5-5--7-7-7-|  
|-7-7-7--3-3-3--5-5-5--7-7-7--3-3-3--5-5-5--7-7-7--3-3-3--5-5-5--7-7-7-|  
|-5-5-5--1-1-1--3-3-3--5-5-5---------3-3-3--5-5-5--1-1-1--3-3-3--5-5-5-|  
P.M..... ..... ..... ..... ..... ..... ..... ..... ..... ......  
 
One, two, three, four  
|----|  
|----|  
|----|  
|-3~-|  
|-3~-|  
|-1~-|  
 
Guitar Two  
................. 
Intro(x6) (Start at about 13 seconds)  
|---8-------8---|  
|-8---8-------8-|  
|---------------|  
|---------------|  
|---------------|  
|---------------|  
 
Intro Cont. ("Broken on the...")  
|------------------------|  
|------------------------|  
|-5-7-9~--4-5-7-9-5~-----|  
|-x-x-x---x-x-x-x-x---5x-|  
|-3-5-7~--2-3-5-7-3~--5x-|  
|---------------------3x-|  
 
Verse (x17) "but I must go..."  
|---8-------8---|  
|-8---8-------8-|  
|---------------|  
|---------------|  
|---------------|  
|---------------|  
 
Chorus  
|---------------------------------------------------------------------------|  
|---------------------------------------------------------------------------|  
|-12-12-12-12-12-12-12-12--10-10-10-10--9--9--9--9--5-5-5-5--7--9--4--7--9--|  
|--x--x--x--x--x--x--x--x--10-10-10-10-10-10-10-10--x-x-x-x--x--x--x--x--x--|  
|-10-10-10-10-10-10-10-10---8--8--8--8--8--8--8--8--3-3-3-3--5--7--2--5--7--|  
|---------------------------8--8--8--8--8--8--8--8--------------------------|  
 
|-----------------------------------------------------------------------------------|  
|-----------------------------------------------------------------------------------|  
|-12-12-12-12--14-14-14-14-14-14-14-14--17--16--14--5-5-5-5-5-5-4-4-5-5-4-4-4-4-4-4-|  
|--x--x--x--x---x--x--x--x--x--x--x--x---x---x---x--5-5-5-5-5-5-5-5-5-5-5-5-5-5-5-5-|  
|-10-10-10-10--12-12-12-12-12-12-12-12--15--14--12--3-3-3-3-3-3-3-3-3-3-3-3-3-3-3-3-|  
|-----------------------------------------------------------------------------------|  
 
Post Chorus  
|-------------------------------------------------------------|  
|-------------------------------------------------------------|  
|-12-12x--10-10x--9-9x--5-5x--12-12x--10-10x--9-9x--5-5x--12~-|  
|--x--xx---x--xx--x-xx--x-xx---x--xx---x--xx--x-xx--x-xx---x--|  
|-10-10x---8--8x--7-7x--3-3x--10-10x---8--8x--7-7x--3-3x--10~-|  
|-------------------------------------------------------------|  
 
Intro variation  
|-----------------------------------|  
|-----------------------------------|  
|-----------------------------------|  
|-7-7-7--3-3-3--5-5-5--7-7-7--5-5-5-|  
|-7-7-7--3-3-3--5-5-5--7-7-7--5-5-5-|  
|-5-5-5--1-1-1--3-3-3--5-5-5--3-3-3-|  
P.M..... ..... ..... ..... .....  
 
Second Verse (x2)  
|-------------------------------------------------------------|  
|-------------------------------------------------------------|  
|-----------------------------------------12-12-12-10-10-10---|  
|-10-10-10-10-10-10-10-10-10-10-10-10-10----------------------|  
|-------------------------------------------------------------|  
|-------------------------------------------------------------|  
.......................................  
 
Second Verse Cont.  
|--------------------------------------------------------------------------|  
|--------------------------------------------------------------------------|  
|---------------------------------------------5--------5-------5-------5---|  
|-10-10-10-10-10-10-10-10-10-10-10-10-10--3-3---3--3-3---3--3-3--3--3-3--3-|  
|--------------------------------------------------------------------------|  
|--------------------------------------------------------------------------|  
........................................... . ... . ... . ... .  
 
Second Verse cont.  
|-------------------------------------|  
|-------------------------------------|  
|-----4--------4--------4--------4----|  
|-3-3---3--3-3---3--3-3---3--3-3---3--|  
|-------------------------------------|  
|-------------------------------------|  
.... . ... . ... . ... .  
 
Repeat Chorus  
Post Chorus  
|------------------------------------------------------------------|  
|------------------------------------------------------------------|  
|-12-12x--10-10x--9-9x--5-5x--12-12xx--10-10xxx--9-9xx--5-5xx--14~-|  
|--x--xx---x--xx--x-xx--x-xx---x--xxx---x--xxxx--x-xxx--x-xxx---x--|  
|-10-10x---8--8x--7-7x--3-3x--10-10xx---8--8xxx--7-7xx--3-3xx--12~-|  
|------------------------------------------------------------------|  
 
Bridge *Very hard to tell, so i'm just going to harmonize the entire thing/  
I'm not sure if the parts not palm muted are harmonized, but im going  
to do it anyways cause it sounds cool.  
|---------------------------------------------------------------------|  
|------------------------------------------6-6-6-6/8-8-8-8------------|  
|---------------------------------------------------------------------|  
|---------------------------------------------------------------------|  
|---------------------------------------------------------------------|  
|---------------------------------------------------------------------|  
 
|--------------------------------------------------------------------|  
|-----5---3---0--------5---3---0---------5---3---5---6-6-6-6/8-8-8-8-|  
|-5-5---5---5---5--5-5---5---5---5---5-5---5---5---5-----------------|  
|--------------------------------------------------------------------|  
|--------------------------------------------------------------------|  
|--------------------------------------------------------------------|  
.... . . . ... . . . ... . . .  
 
|--------------------------------------------------------------------|  
|-----5---3---0--------5---3---0--------5---3---5---6--5---3---5-----|  
|-5-5---5---5---5--5-5---5---5---5--5-5---5---5---5---5--5---5-------|  
|--------------------------------------------------------------------|  
|--------------------------------------------------------------------|  
|--------------------------------------------------------------------|  
.... . . . ... . . ...... . . . . . .  
 
|--------------------------------------------------------------------|  
|-----5---3---0--------5---3---0---6-6-6-6-6-6-6-6/8-8-8-8-8---------|  
|-5-5---5---5---5--5-5---5---5---5-----------------------------------|  
|--------------------------------------------------------------------|  
|--------------------------------------------------------------------|  
|--------------------------------------------------------------------|  
.... . . . ... . . .  
 
Repeat Chorus  
Final Post Chorus  
|----------------------------------------------------------------------|  
|----------------------------------------------------------------------|  
|-12-12xxx--10-10xxx--9-9xx--5-5xx--12-12xx--10-10xx--9-9xx--5-5-5-5-5-|  
|--x--xxxx---x--xxxx--x-xxx--x-xxx---x--xxx---x--xxx--x-xxx--x-x-x-x-x-|  
|-10-10xxx---8--8xxx--7-7xx--3-3xx--10-10xx---8--8xx--7-7xx--3-3-3-3-3-|  
|----------------------------------------------------------------------|  
 
Final Post Chorus Cont.  
|-----------------------------------------------------------------------|  
|-----------------------------------------------------------------------|  
|-12-12-10-10--12-12-10-10--17-17--16-16--17-17-17-17-17-17-17-17-5~-7~-|  
|--x--x---x-x---x--x--x--x---x--x---x--x---x--x--x--x--x--x--x--x-x--x--|  
|-10-10---8-8--10-10--8--8--15-15--14-14--15-15-15-15-15-15-15-15-3~-5~-|  
|-----------------------------------------------------------------------|  
 
Outro  
|-------------------------------------------------------------------------------------|  
|-------------------------------------------------------------------------------------|  
|-------------------------------------------------------------------------------------|  
|-10-10-10--10-10-10-9-9-9-10-10-10--10-10-10-9-9-9-10-10-10--10-10-10-9-9-9-10-10-10-|  
|-------------------------------------------------------------------------------------|  
|-------------------------------------------------------------------------------------|  
 
End On  
|-----|  
|-----|  
|-14~-|  
|--x--|  
|-12~-|  
|-----| 
 

		  

See also:

tabs Green Day - She tabs Blink 182 - Anthem Part II tabs Blink 182 - What's My Age Again? tabs 30 Seconds To Mars - The Kill tabs Green Day - Boulevard Of Broken Dreams (ver. 2) tabs Blink 182 - I miss you (solo)
e-chords

Other versions:

tabs P.O.D. - Follow Me tabs Rufio - Follow Me tabs Uncle Kracker - Follow Me tabs Stone Soul - Follow Me tabs Metallica - Follow Me tabs E-girls - Follow Me
auto scroll beats size up size down change color hide chords drawings
tab show chords e-chords YouTube Clip e-chords hide all tabs e-chords go to top tab

share