Toto

home > Toto

On The Run Tab

Toto

Difficulty: ExpertExpert

tuner correct add songbook print version text version save to e-mail
chordsukulelecavacokeyboardtabbassdrumsharmonicsflute Guitar Pro
chords

On The Run

Year: 1998 - Album: The Essential Toto

	  Riff 1               h p       8 times
e|---------------------------|
B|---------------------------|
G|---9---7-------------------|
D|-----------11--7-9--5-7-5--|
A|-7---7---7-----------------|
E|---------------------------|

   G   A   B   C
e|---------------|
B|-3-------------|
G|-0---2---4---5-|
D|-0---2---4---5-|
A|-----0---2---3-|
E|-3-------------|

Riff2
   E                         E                G
                 h  h  p
e|-------------------------|--------------------|
B|-------------------------|------------------3-|
G|-------------------------|------------------0-|
D|-------------------------|------------------0-|
A|---7---5---4--0-2--------|---7---5---4--0-2---|
E|-0---0---0--------3-5-3--|-0---0---0--------3-|

Riff2A
   E                         G   A   B   C
                 h  h  p
e|-------------------------|---------------|
B|-------------------------|-3-------------|
G|-------------------------|-0---2---4---5-|
D|-------------------------|-0---2---4---5-|
A|---7---5---4--0-2--------|-----0---2---3-|
E|-0---0---0--------3-5-3--|-3-------------|

Everybody's moving way too fast
  Em                       Em                        Em               G
  p.m.------------------|
e|-----------------------|-------------------------|--------------------|
B|-----------------------|-------------------------|------------------3-|
G|-----------------------|-------------------------|------------------0-|
D|-----------------------|-------------------------|------------------0-|
A|-----------------------|---7---5---4--0-2--------|---7---5---4--0-2---|
E|-0-0-0-0-0-0-0-0-0-0-0-|-0---0---0--------3-5-3--|-0---0---0--------3-|

Before you blink you better find out who's in your path
  Em                       Em                        G   A   B   C
  p.m.------------------|
e|-----------------------|-------------------------|---------------|
B|-----------------------|-------------------------|-3-------------|
G|-----------------------|-------------------------|-0---2---4---5-|
D|-----------------------|-------------------------|-0---2---4---5-|
A|-----------------------|---7---5---4--0-2--------|-----0---2---3-|
E|-0-0-0-0-0-0-0-0-0-0-0-|-0---0---0--------3-5-3--|-3-------------|

The pressure's building up on every side
In my heart I know that I've got nothing to hide

     What would make you think that you're the only one
   D                                                D C  D C  D C
e|------------------------------------------------|-----------------|
B|-3----------------------------------------------|-7-5--7-5--7-5---|
G|-2----------------------------------------------|-7-5--7-5--7-5---|
D|-0----------------------------------------------|-7-5--7-5--7-5---|
A|-0----------------------------------------------|---------------2-|
E|------------------------------------------------|-----------------|

     Now I know my troubles have just begun, oh yeah
   Am                            G/B    C       D
e|-----------------------------|------------------|
B|-----------------------------|------------------|
G|-2---------------------------|-4------5-------5-|
D|-2---------------------------|-5------5-------5-|
A|-0---------------------------|-2------3-------7-|
E|-----------------------------|------------------|


           Em        G      D            Am
I'm on the run and nobody's stopping me
           Em                C               D      Am Am  C C
I'm on the run and there's nobody left on my side
           Em        G           D
I'm on the run and I know you're watching me
        Am         G/B     C
There's not enough time to decide



You never know what the night could bring
Every moment all the angels begin to sing
Why the worry - just to save your pride 
With all the answers buried so deep inside

It doesn't take a crystal ball to see the truth
It's gonna take a miracle to see this thing through

Chorus

  p.m.        p.m.
e|----------------------------|
B|----------------------------|
G|----------------------------|
D|----------------------------|
A|-----0-2-5------0-2-5--4--0-|
E|-0-0--------0-0-------------|

Guitar solo

           Em        G      D            Am
I'm on the run and nobody's stopping me
           Em                C               D      Am Am  C C
I'm on the run and there's nobody left on my side
           Em        G           D           Am
I'm on the run and I know you're watching me
           Em          C                        D       Am Am  C C
I'm on the run and you can't say that I haven't tried
           Em        G      D
I'm on the run and nobody's stopping me
           Em                C               D      Am Am  C C
I'm on the run and there's nobody left on my side
           Em        G           D
I'm on the run and I know you're watching me
        Am         G/B       C        Em
There's not enough time to decide
	  

there isn't a video lesson for this song

request
Full key step upFull key step up
Half key step upHalf key step up
Half key step downHalf key step down
Full key step downFull key step down
Search
auto scroll beats size up size down change color hide chords drawings
tab show chords e-chords YouTube Clip e-chords hide all tabs e-chords go to top tab