Idir

A Vava Inouva

Idir

tabs Expert expert

by  CARLLUZ

save to print version add songbook text version e-mail correct tuner
chordsukulelecavacokeyboardtabbassdrumsharmonicaflute Guitar Pro
close

there isn't a video lesson for this song

chords

A Vava Inouva

	  		Intro: 

e|-7b--------------3s5---5s7---7b----------|-----5-5-5-3-2-0-0h2p0----------------------| 
B|-----------------------------------------|------------------------3b------------------| 
G|-----------------------------------------|--------------------------------------------| 
D|-----------------------------------------|--------------------------------------------| 
A|-----------------------------------------|--------------------------------------------| 
E|-----------------------------------------|--------------------------------------------| 


e|----3p2-3-------------3-3-3-2-0-3p2--0---|--------------------------------------------| 
B|-3---------------------------------3-----|--------------------------------------------| 
G|-----------------------------------------|--------------------------------------------| 
D|-----------------------------------------|-----------2-0h2-------2-0h2----------------| 
A|-----------------------------------------|---------2------------2---------------------| 
E|-----------------------------------------|----0-3------------0-3----------------------| 




e|--3----3-3-5-7--------5-3-2-0------------|-3-2-3----3-3-2-0--3p2----0-----------------| 
B|------------------------------3-------3-3|-----------------------3--------------------| 
G|-----------------------------------------|--------------------------------------------| 
D|-----------------------------------------|--------------------------------------------| 
A|-----------------------------------------|--------------------------------------------| 
E|-----------------------------------------|--------------------------------------------| 



e|--3----3-3-5-7-------5-3-2-0-------------|-3-2-3----3-3-2-0--3p2----0-----------------| 
B|-----------------------------3--------3-3|-----------------------3--------------------| 
G|-----------------------------------------|--------------------------------------------| 
D|-----------------------------------------|--------------------------------------------| 
A|-----------------------------------------|--------------------------------------------| 
E|-----------------------------------------|--------------------------------------------| 

Refrain: 

e|----------------3-5-3-2-0-----3-5-3-2-0--|---0h2-2-2-2-0----2-3-2-0-0--------0-2-3p2-0| 
B|----3s5-5-5-5-5--------------------------|-3-------------3---------3-------3----------| 
G|-----------------------------------------|--------------------------------------------| 
D|-----------------------------------------|--------------------------------------------| 
A|-----------------------------------------|--------------------------------------------| 
E|-----------------------------------------|--------------------------------------------| 

e|----------------3-5-3-2-0-----3-5-3-2-0--|---0h2-2-2-2-0----2-3-2-0-0--------0-2-3p2-0| 
B|----3s5-5-5-5-5--------------------------|-3-------------3---------3-------3----------| 
G|-----------------------------------------|--------------------------------------------| 
D|-----------------------------------------|--------------------------------------------| 
A|-----------------------------------------|--------------------------------------------| 
E|-----------------------------------------|--------------------------------------------| 




e|--3----3-3-5-7---------5-3-2-0-----------|-3-2-3----3-3-2-0--3p2----0-----------------| 
B|-------------------------------3------3-3|-----------------------3--------------------| 
G|-----------------------------------------|--------------------------------------------| 
D|-----------------------------------------|--------------------------------------------| 
A|-----------------------------------------|--------------------------------------------| 
E|-----------------------------------------|--------------------------------------------| 



Verses: 

1'17" and 2'37" 

e|000--0-0---2-3---------3-3-3-3-2---------|-----2-2-0-0-----------------------2-3-2-0-0| 
B|----------------------------------3------|--------------3p2h3----------3-3-3----------| 
G|-----------------------------------------|--------------------------------------------| 
D|-----------------------------------------|--------------------------------------------| 
A|-----------------------------------------|--------------------------------------------| 
E|-----------------------------------------|--------------------------------------------| 


e|000--0-0---2-3---------3-3-3-3-2---------|-----2-2-0-0-----------------------2-3-2-0-0| 
B|----------------------------------3------|--------------3p2h3----------3-3-3----------| 
G|-----------------------------------------|--------------------------------------------| 
D|-----------------------------------------|--------------------------------------------| 
A|-----------------------------------------|--------------------------------------------| 
E|-----------------------------------------|--------------------------------------------| 


e|-----3-3-5-7----7-77-77-5-5-3-3----------|2-22-2-0-2------------3-2-0-3-2-0-0---------| 
B|-----------------------------------------|--------------------------------------------| 
G|-----------------------------------------|--------------------------------------------| 
D|-----------------------------------------|--------------------------------------------| 
A|-----------------------------------------|--------------------------------------------| 
E|-----------------------------------------|--------------------------------------------| 



e|-2-2-2-5-3-2-2--------2-22-2-0-2---------|----2-2-2-5-3-2-2-----3-2-0-3-2-0-0---------| 
B|-----------------------------------------|--------------------------------------------| 
G|-----------------------------------------|--------------------------------------------| 
D|-----------------------------------------|--------------------------------------------| 
A|-----------------------------------------|--------------------------------------------| 
E|-----------------------------------------|--------------------------------------------| 



Refrain x 1 

Verses x 1 

Refrain x 1 


Outro: 



e|--3----3-3-5-7---------5-3-2-0-----------|-3-2-3----3-3-2-0--3p2----0---------------| 
B|-------------------------------3------3-3|-----------------------3------------------| 
G|-----------------------------------------|------------------------------------------|  
D|-----------------------------------------|------------------------------------------| 
A|-----------------------------------------|------------------------------------------| 
E|-----------------------------------------|------------------------------------------| 

x3 and fade. 
		  

See also:

tabs Megaman - Concrete Jungle tabs Misc Computer Games - Plants Vs Zombies 2 - Wild West Theme tabs Porta - La Bella Y La Bestia tabs Misc Television - Family Guy - Iraq Lobster tabs Misc Television - Gravity Falls Theme tabs Misc Television - Doctor Who Theme (acoustic)
e-chords

Other versions:

tabs Idir - A Vava Inouva
auto scroll beats size up size down change color hide chords drawings
tab show chords e-chords YouTube Clip e-chords hide all tabs e-chords go to top tab

share